ISO-10303-21;
HEADER;
/* Generated by software containing ST-Developer
 * from STEP Tools, Inc. (www.steptools.com) 
 */

FILE_DESCRIPTION(
/* description */ (''),
/* implementation_level */ '2;1');

FILE_NAME(
/* name */ 'CEP-135-PLUG.stp',
/* time_stamp */ '2024-10-22T17:21:46+02:00',
/* author */ ('Admin'),
/* organization */ (''),
/* preprocessor_version */ 'ST-DEVELOPER v20',
/* originating_system */ 'Autodesk Inventor 2025',
/* authorisation */ '');

FILE_SCHEMA (('CONFIG_CONTROL_DESIGN'));
ENDSEC;

DATA;
#10=MECHANICAL_DESIGN_GEOMETRIC_PRESENTATION_REPRESENTATION('',(#239,#240,
#241,#242,#243,#244,#245,#246,#247,#248,#249,#250,#251,#252,#253,#254,#255,
#256),#517);
#11=SHAPE_REPRESENTATION_RELATIONSHIP('SRR','None',#524,#12);
#12=ADVANCED_BREP_SHAPE_REPRESENTATION('',(#13),#516);
#13=MANIFOLD_SOLID_BREP('T\X2\011B\X0\leso1',#274);
#14=CYLINDRICAL_SURFACE('',#331,20.25);
#15=CYLINDRICAL_SURFACE('',#337,4.188);
#16=CYLINDRICAL_SURFACE('',#340,17.);
#17=FACE_BOUND('',#66,.T.);
#18=FACE_BOUND('',#69,.T.);
#19=PLANE('',#315);
#20=PLANE('',#320);
#21=PLANE('',#332);
#22=LINE('',#460,#30);
#23=LINE('',#464,#31);
#24=LINE('',#495,#32);
#25=LINE('',#501,#33);
#26=LINE('',#504,#34);
#27=LINE('',#507,#35);
#28=LINE('',#511,#36);
#29=LINE('',#513,#37);
#30=VECTOR('',#367,21.7749981495186);
#31=VECTOR('',#372,18.8649981495186);
#32=VECTOR('',#415,20.25);
#33=VECTOR('',#422,2.094);
#34=VECTOR('',#425,4.744);
#35=VECTOR('',#430,4.188);
#36=VECTOR('',#435,18.625);
#37=VECTOR('',#438,17.);
#38=CONICAL_SURFACE('',#307,21.7749981495186,0.26179938779915);
#39=CONICAL_SURFACE('',#310,18.8649981495186,1.39626340159546);
#40=CONICAL_SURFACE('',#333,2.094,1.02974425867665);
#41=CONICAL_SURFACE('',#335,4.744,0.785398163397448);
#42=CONICAL_SURFACE('',#338,18.625,0.785398163397449);
#43=FACE_OUTER_BOUND('',#60,.T.);
#44=FACE_OUTER_BOUND('',#61,.T.);
#45=FACE_OUTER_BOUND('',#62,.T.);
#46=FACE_OUTER_BOUND('',#63,.T.);
#47=FACE_OUTER_BOUND('',#64,.T.);
#48=FACE_OUTER_BOUND('',#65,.T.);
#49=FACE_OUTER_BOUND('',#67,.T.);
#50=FACE_OUTER_BOUND('',#68,.T.);
#51=FACE_OUTER_BOUND('',#70,.T.);
#52=FACE_OUTER_BOUND('',#71,.T.);
#53=FACE_OUTER_BOUND('',#72,.T.);
#54=FACE_OUTER_BOUND('',#73,.T.);
#55=FACE_OUTER_BOUND('',#74,.T.);
#56=FACE_OUTER_BOUND('',#75,.T.);
#57=FACE_OUTER_BOUND('',#76,.T.);
#58=FACE_OUTER_BOUND('',#77,.T.);
#59=FACE_OUTER_BOUND('',#78,.T.);
#60=EDGE_LOOP('',(#163,#164,#165,#166));
#61=EDGE_LOOP('',(#167,#168,#169,#170,#171,#172));
#62=EDGE_LOOP('',(#173,#174,#175,#176,#177,#178));
#63=EDGE_LOOP('',(#179,#180,#181,#182,#183));
#64=EDGE_LOOP('',(#184,#185,#186,#187,#188));
#65=EDGE_LOOP('',(#189));
#66=EDGE_LOOP('',(#190));
#67=EDGE_LOOP('',(#191,#192,#193,#194));
#68=EDGE_LOOP('',(#195));
#69=EDGE_LOOP('',(#196));
#70=EDGE_LOOP('',(#197,#198,#199,#200,#201));
#71=EDGE_LOOP('',(#202,#203,#204,#205,#206));
#72=EDGE_LOOP('',(#207,#208,#209,#210,#211));
#73=EDGE_LOOP('',(#212));
#74=EDGE_LOOP('',(#213,#214,#215));
#75=EDGE_LOOP('',(#216,#217,#218,#219));
#76=EDGE_LOOP('',(#220,#221,#222,#223));
#77=EDGE_LOOP('',(#224,#225,#226,#227,#228));
#78=EDGE_LOOP('',(#229,#230,#231,#232));
#79=CIRCLE('',#298,16.4368445257752);
#80=CIRCLE('',#299,2.);
#81=CIRCLE('',#300,18.2250000000001);
#82=CIRCLE('',#302,20.7794620740069);
#83=CIRCLE('',#303,0.3);
#84=CIRCLE('',#304,20.5417787794202);
#85=CIRCLE('',#305,20.5417787794202);
#86=CIRCLE('',#306,20.7794620740069);
#87=CIRCLE('',#308,22.4023156957185);
#88=CIRCLE('',#309,22.4023156957185);
#89=CIRCLE('',#311,17.);
#90=CIRCLE('',#313,1.);
#91=CIRCLE('',#314,21.4363898694295);
#92=CIRCLE('',#316,5.);
#93=CIRCLE('',#318,18.25);
#94=CIRCLE('',#319,2.);
#95=CIRCLE('',#321,20.25);
#96=CIRCLE('',#323,17.4409473096195);
#97=CIRCLE('',#324,17.4409473096195);
#98=CIRCLE('',#325,2.);
#99=CIRCLE('',#327,20.25);
#100=CIRCLE('',#328,3.);
#101=CIRCLE('',#329,17.25);
#102=CIRCLE('',#330,20.25);
#103=CIRCLE('',#334,4.188);
#104=CIRCLE('',#336,4.188);
#105=CIRCLE('',#339,17.);
#106=VERTEX_POINT('',#441);
#107=VERTEX_POINT('',#443);
#108=VERTEX_POINT('',#447);
#109=VERTEX_POINT('',#448);
#110=VERTEX_POINT('',#450);
#111=VERTEX_POINT('',#452);
#112=VERTEX_POINT('',#457);
#113=VERTEX_POINT('',#458);
#114=VERTEX_POINT('',#463);
#115=VERTEX_POINT('',#467);
#116=VERTEX_POINT('',#471);
#117=VERTEX_POINT('',#474);
#118=VERTEX_POINT('',#478);
#119=VERTEX_POINT('',#481);
#120=VERTEX_POINT('',#482);
#121=VERTEX_POINT('',#487);
#122=VERTEX_POINT('',#488);
#123=VERTEX_POINT('',#490);
#124=VERTEX_POINT('',#498);
#125=VERTEX_POINT('',#500);
#126=VERTEX_POINT('',#503);
#127=VERTEX_POINT('',#509);
#128=EDGE_CURVE('',#106,#106,#79,.T.);
#129=EDGE_CURVE('',#106,#107,#80,.T.);
#130=EDGE_CURVE('',#107,#107,#81,.T.);
#131=EDGE_CURVE('',#108,#109,#82,.T.);
#132=EDGE_CURVE('',#109,#110,#83,.T.);
#133=EDGE_CURVE('',#110,#111,#84,.T.);
#134=EDGE_CURVE('',#111,#110,#85,.T.);
#135=EDGE_CURVE('',#109,#108,#86,.T.);
#136=EDGE_CURVE('',#112,#113,#87,.T.);
#137=EDGE_CURVE('',#112,#108,#22,.T.);
#138=EDGE_CURVE('',#113,#112,#88,.T.);
#139=EDGE_CURVE('',#111,#114,#23,.T.);
#140=EDGE_CURVE('',#114,#114,#89,.T.);
#141=EDGE_CURVE('',#113,#115,#90,.T.);
#142=EDGE_CURVE('',#115,#115,#91,.T.);
#143=EDGE_CURVE('',#116,#116,#92,.T.);
#144=EDGE_CURVE('',#117,#117,#93,.T.);
#145=EDGE_CURVE('',#117,#107,#94,.T.);
#146=EDGE_CURVE('',#118,#118,#95,.T.);
#147=EDGE_CURVE('',#119,#120,#96,.T.);
#148=EDGE_CURVE('',#120,#119,#97,.T.);
#149=EDGE_CURVE('',#120,#106,#98,.T.);
#150=EDGE_CURVE('',#121,#122,#99,.T.);
#151=EDGE_CURVE('',#122,#123,#100,.T.);
#152=EDGE_CURVE('',#123,#123,#101,.T.);
#153=EDGE_CURVE('',#122,#121,#102,.T.);
#154=EDGE_CURVE('',#118,#121,#24,.T.);
#155=EDGE_CURVE('',#124,#124,#103,.T.);
#156=EDGE_CURVE('',#124,#125,#25,.T.);
#157=EDGE_CURVE('',#116,#126,#26,.T.);
#158=EDGE_CURVE('',#126,#126,#104,.T.);
#159=EDGE_CURVE('',#126,#124,#27,.T.);
#160=EDGE_CURVE('',#127,#127,#105,.T.);
#161=EDGE_CURVE('',#127,#119,#28,.T.);
#162=EDGE_CURVE('',#114,#127,#29,.T.);
#163=ORIENTED_EDGE('',*,*,#128,.F.);
#164=ORIENTED_EDGE('',*,*,#129,.T.);
#165=ORIENTED_EDGE('',*,*,#130,.F.);
#166=ORIENTED_EDGE('',*,*,#129,.F.);
#167=ORIENTED_EDGE('',*,*,#131,.T.);
#168=ORIENTED_EDGE('',*,*,#132,.T.);
#169=ORIENTED_EDGE('',*,*,#133,.T.);
#170=ORIENTED_EDGE('',*,*,#134,.T.);
#171=ORIENTED_EDGE('',*,*,#132,.F.);
#172=ORIENTED_EDGE('',*,*,#135,.T.);
#173=ORIENTED_EDGE('',*,*,#136,.F.);
#174=ORIENTED_EDGE('',*,*,#137,.T.);
#175=ORIENTED_EDGE('',*,*,#135,.F.);
#176=ORIENTED_EDGE('',*,*,#131,.F.);
#177=ORIENTED_EDGE('',*,*,#137,.F.);
#178=ORIENTED_EDGE('',*,*,#138,.F.);
#179=ORIENTED_EDGE('',*,*,#133,.F.);
#180=ORIENTED_EDGE('',*,*,#134,.F.);
#181=ORIENTED_EDGE('',*,*,#139,.T.);
#182=ORIENTED_EDGE('',*,*,#140,.T.);
#183=ORIENTED_EDGE('',*,*,#139,.F.);
#184=ORIENTED_EDGE('',*,*,#136,.T.);
#185=ORIENTED_EDGE('',*,*,#141,.T.);
#186=ORIENTED_EDGE('',*,*,#142,.T.);
#187=ORIENTED_EDGE('',*,*,#141,.F.);
#188=ORIENTED_EDGE('',*,*,#138,.T.);
#189=ORIENTED_EDGE('',*,*,#142,.F.);
#190=ORIENTED_EDGE('',*,*,#143,.F.);
#191=ORIENTED_EDGE('',*,*,#144,.T.);
#192=ORIENTED_EDGE('',*,*,#145,.T.);
#193=ORIENTED_EDGE('',*,*,#130,.T.);
#194=ORIENTED_EDGE('',*,*,#145,.F.);
#195=ORIENTED_EDGE('',*,*,#146,.F.);
#196=ORIENTED_EDGE('',*,*,#144,.F.);
#197=ORIENTED_EDGE('',*,*,#147,.F.);
#198=ORIENTED_EDGE('',*,*,#148,.F.);
#199=ORIENTED_EDGE('',*,*,#149,.T.);
#200=ORIENTED_EDGE('',*,*,#128,.T.);
#201=ORIENTED_EDGE('',*,*,#149,.F.);
#202=ORIENTED_EDGE('',*,*,#150,.T.);
#203=ORIENTED_EDGE('',*,*,#151,.T.);
#204=ORIENTED_EDGE('',*,*,#152,.T.);
#205=ORIENTED_EDGE('',*,*,#151,.F.);
#206=ORIENTED_EDGE('',*,*,#153,.T.);
#207=ORIENTED_EDGE('',*,*,#146,.T.);
#208=ORIENTED_EDGE('',*,*,#154,.T.);
#209=ORIENTED_EDGE('',*,*,#153,.F.);
#210=ORIENTED_EDGE('',*,*,#150,.F.);
#211=ORIENTED_EDGE('',*,*,#154,.F.);
#212=ORIENTED_EDGE('',*,*,#152,.F.);
#213=ORIENTED_EDGE('',*,*,#155,.T.);
#214=ORIENTED_EDGE('',*,*,#156,.T.);
#215=ORIENTED_EDGE('',*,*,#156,.F.);
#216=ORIENTED_EDGE('',*,*,#143,.T.);
#217=ORIENTED_EDGE('',*,*,#157,.T.);
#218=ORIENTED_EDGE('',*,*,#158,.F.);
#219=ORIENTED_EDGE('',*,*,#157,.F.);
#220=ORIENTED_EDGE('',*,*,#158,.T.);
#221=ORIENTED_EDGE('',*,*,#159,.T.);
#222=ORIENTED_EDGE('',*,*,#155,.F.);
#223=ORIENTED_EDGE('',*,*,#159,.F.);
#224=ORIENTED_EDGE('',*,*,#160,.F.);
#225=ORIENTED_EDGE('',*,*,#161,.T.);
#226=ORIENTED_EDGE('',*,*,#147,.T.);
#227=ORIENTED_EDGE('',*,*,#148,.T.);
#228=ORIENTED_EDGE('',*,*,#161,.F.);
#229=ORIENTED_EDGE('',*,*,#140,.F.);
#230=ORIENTED_EDGE('',*,*,#162,.T.);
#231=ORIENTED_EDGE('',*,*,#160,.T.);
#232=ORIENTED_EDGE('',*,*,#162,.F.);
#233=TOROIDAL_SURFACE('',#297,18.2,2.);
#234=TOROIDAL_SURFACE('',#301,20.4896843261201,0.3);
#235=TOROIDAL_SURFACE('',#312,21.4363898694295,1.);
#236=TOROIDAL_SURFACE('',#317,18.25,2.);
#237=TOROIDAL_SURFACE('',#322,18.25,2.);
#238=TOROIDAL_SURFACE('',#326,17.25,3.);
#239=STYLED_ITEM('',(#534),#257);
#240=STYLED_ITEM('',(#535),#258);
#241=STYLED_ITEM('',(#535),#259);
#242=STYLED_ITEM('',(#535),#260);
#243=STYLED_ITEM('',(#535),#261);
#244=STYLED_ITEM('',(#535),#262);
#245=STYLED_ITEM('',(#535),#263);
#246=STYLED_ITEM('',(#535),#264);
#247=STYLED_ITEM('',(#535),#265);
#248=STYLED_ITEM('',(#535),#266);
#249=STYLED_ITEM('',(#535),#267);
#250=STYLED_ITEM('',(#535),#268);
#251=STYLED_ITEM('',(#535),#269);
#252=STYLED_ITEM('',(#535),#270);
#253=STYLED_ITEM('',(#535),#271);
#254=STYLED_ITEM('',(#535),#272);
#255=STYLED_ITEM('',(#535),#273);
#256=STYLED_ITEM('',(#533),#13);
#257=ADVANCED_FACE('',(#43),#233,.T.);
#258=ADVANCED_FACE('',(#44),#234,.T.);
#259=ADVANCED_FACE('',(#45),#38,.T.);
#260=ADVANCED_FACE('',(#46),#39,.T.);
#261=ADVANCED_FACE('',(#47),#235,.T.);
#262=ADVANCED_FACE('',(#48,#17),#19,.T.);
#263=ADVANCED_FACE('',(#49),#236,.F.);
#264=ADVANCED_FACE('',(#50,#18),#20,.F.);
#265=ADVANCED_FACE('',(#51),#237,.F.);
#266=ADVANCED_FACE('',(#52),#238,.T.);
#267=ADVANCED_FACE('',(#53),#14,.T.);
#268=ADVANCED_FACE('',(#54),#21,.T.);
#269=ADVANCED_FACE('',(#55),#40,.F.);
#270=ADVANCED_FACE('',(#56),#41,.F.);
#271=ADVANCED_FACE('',(#57),#15,.F.);
#272=ADVANCED_FACE('',(#58),#42,.T.);
#273=ADVANCED_FACE('',(#59),#16,.T.);
#274=CLOSED_SHELL('',(#257,#258,#259,#260,#261,#262,#263,#264,#265,#266,
#267,#268,#269,#270,#271,#272,#273));
#275=DERIVED_UNIT_ELEMENT(#278,1.);
#276=DERIVED_UNIT_ELEMENT(#519,-3.);
#277=DIMENSIONAL_EXPONENTS(0.,1.,0.,0.,0.,0.,0.);
#278=(
CONVERSION_BASED_UNIT('gram',#280)
MASS_UNIT()
NAMED_UNIT(#277)
);
#279=(
MASS_UNIT()
NAMED_UNIT(*)
SI_UNIT(.KILO.,.GRAM.)
);
#280=MASS_MEASURE_WITH_UNIT(MASS_MEASURE(0.001),#279);
#281=DERIVED_UNIT((#275,#276));
#282=MEASURE_REPRESENTATION_ITEM('density measure',
POSITIVE_RATIO_MEASURE(1.),#281);
#283=PROPERTY_DEFINITION_REPRESENTATION(#288,#285);
#284=PROPERTY_DEFINITION_REPRESENTATION(#289,#286);
#285=REPRESENTATION('material name',(#287),#516);
#286=REPRESENTATION('density',(#282),#516);
#287=DESCRIPTIVE_REPRESENTATION_ITEM('V\X2\0161\X0\eobecn\X\E9',
'V\X2\0161\X0\eobecn\X\E9');
#288=PROPERTY_DEFINITION('material property','material name',#526);
#289=PROPERTY_DEFINITION('material property','density of part',#526);
#290=DATE_TIME_ROLE('creation_date');
#291=CC_DESIGN_DATE_AND_TIME_ASSIGNMENT(#292,#290,(#526));
#292=DATE_AND_TIME(#293,#294);
#293=CALENDAR_DATE(2024,22,10);
#294=LOCAL_TIME(0,0,0.,#295);
#295=COORDINATED_UNIVERSAL_TIME_OFFSET(0,0,.BEHIND.);
#296=AXIS2_PLACEMENT_3D('',#439,#341,#342);
#297=AXIS2_PLACEMENT_3D('',#440,#343,#344);
#298=AXIS2_PLACEMENT_3D('',#442,#345,#346);
#299=AXIS2_PLACEMENT_3D('',#444,#347,#348);
#300=AXIS2_PLACEMENT_3D('',#445,#349,#350);
#301=AXIS2_PLACEMENT_3D('',#446,#351,#352);
#302=AXIS2_PLACEMENT_3D('',#449,#353,#354);
#303=AXIS2_PLACEMENT_3D('',#451,#355,#356);
#304=AXIS2_PLACEMENT_3D('',#453,#357,#358);
#305=AXIS2_PLACEMENT_3D('',#454,#359,#360);
#306=AXIS2_PLACEMENT_3D('',#455,#361,#362);
#307=AXIS2_PLACEMENT_3D('',#456,#363,#364);
#308=AXIS2_PLACEMENT_3D('',#459,#365,#366);
#309=AXIS2_PLACEMENT_3D('',#461,#368,#369);
#310=AXIS2_PLACEMENT_3D('',#462,#370,#371);
#311=AXIS2_PLACEMENT_3D('',#465,#373,#374);
#312=AXIS2_PLACEMENT_3D('',#466,#375,#376);
#313=AXIS2_PLACEMENT_3D('',#468,#377,#378);
#314=AXIS2_PLACEMENT_3D('',#469,#379,#380);
#315=AXIS2_PLACEMENT_3D('',#470,#381,#382);
#316=AXIS2_PLACEMENT_3D('',#472,#383,#384);
#317=AXIS2_PLACEMENT_3D('',#473,#385,#386);
#318=AXIS2_PLACEMENT_3D('',#475,#387,#388);
#319=AXIS2_PLACEMENT_3D('',#476,#389,#390);
#320=AXIS2_PLACEMENT_3D('',#477,#391,#392);
#321=AXIS2_PLACEMENT_3D('',#479,#393,#394);
#322=AXIS2_PLACEMENT_3D('',#480,#395,#396);
#323=AXIS2_PLACEMENT_3D('',#483,#397,#398);
#324=AXIS2_PLACEMENT_3D('',#484,#399,#400);
#325=AXIS2_PLACEMENT_3D('',#485,#401,#402);
#326=AXIS2_PLACEMENT_3D('',#486,#403,#404);
#327=AXIS2_PLACEMENT_3D('',#489,#405,#406);
#328=AXIS2_PLACEMENT_3D('',#491,#407,#408);
#329=AXIS2_PLACEMENT_3D('',#492,#409,#410);
#330=AXIS2_PLACEMENT_3D('',#493,#411,#412);
#331=AXIS2_PLACEMENT_3D('',#494,#413,#414);
#332=AXIS2_PLACEMENT_3D('',#496,#416,#417);
#333=AXIS2_PLACEMENT_3D('',#497,#418,#419);
#334=AXIS2_PLACEMENT_3D('',#499,#420,#421);
#335=AXIS2_PLACEMENT_3D('',#502,#423,#424);
#336=AXIS2_PLACEMENT_3D('',#505,#426,#427);
#337=AXIS2_PLACEMENT_3D('',#506,#428,#429);
#338=AXIS2_PLACEMENT_3D('',#508,#431,#432);
#339=AXIS2_PLACEMENT_3D('',#510,#433,#434);
#340=AXIS2_PLACEMENT_3D('',#512,#436,#437);
#341=DIRECTION('axis',(0.,0.,1.));
#342=DIRECTION('refdir',(1.,0.,0.));
#343=DIRECTION('center_axis',(0.,1.,0.));
#344=DIRECTION('ref_axis',(0.,0.,1.));
#345=DIRECTION('center_axis',(0.,1.,0.));
#346=DIRECTION('ref_axis',(0.,0.,1.));
#347=DIRECTION('center_axis',(-1.,0.,1.22464679914735E-16));
#348=DIRECTION('ref_axis',(-1.22464679914735E-16,0.,-1.));
#349=DIRECTION('center_axis',(0.,-1.,0.));
#350=DIRECTION('ref_axis',(0.,0.,1.));
#351=DIRECTION('center_axis',(0.,1.,0.));
#352=DIRECTION('ref_axis',(0.,0.,1.));
#353=DIRECTION('center_axis',(0.,-1.,0.));
#354=DIRECTION('ref_axis',(1.,0.,-6.12323399573677E-17));
#355=DIRECTION('center_axis',(-1.,0.,1.22464679914735E-16));
#356=DIRECTION('ref_axis',(-1.22464679914735E-16,0.,-1.));
#357=DIRECTION('center_axis',(0.,1.,0.));
#358=DIRECTION('ref_axis',(1.,0.,-6.12323399573677E-17));
#359=DIRECTION('center_axis',(0.,1.,0.));
#360=DIRECTION('ref_axis',(1.,0.,-6.12323399573677E-17));
#361=DIRECTION('center_axis',(0.,-1.,0.));
#362=DIRECTION('ref_axis',(1.,0.,-6.12323399573677E-17));
#363=DIRECTION('center_axis',(0.,1.,0.));
#364=DIRECTION('ref_axis',(-1.,0.,0.));
#365=DIRECTION('center_axis',(0.,1.,0.));
#366=DIRECTION('ref_axis',(-1.,0.,6.12323399573676E-17));
#367=DIRECTION('',(-0.258819045102521,-0.965925826289068,3.16961915143177E-17));
#368=DIRECTION('center_axis',(0.,1.,0.));
#369=DIRECTION('ref_axis',(-1.,0.,6.12323399573676E-17));
#370=DIRECTION('center_axis',(0.,1.,0.));
#371=DIRECTION('ref_axis',(-1.,0.,0.));
#372=DIRECTION('',(-0.984807753012208,-0.17364817766693,1.2060416625019E-16));
#373=DIRECTION('center_axis',(0.,1.,0.));
#374=DIRECTION('ref_axis',(1.,0.,0.));
#375=DIRECTION('center_axis',(0.,-1.,0.));
#376=DIRECTION('ref_axis',(0.,0.,-1.));
#377=DIRECTION('center_axis',(-1.,0.,-1.22464679914735E-16));
#378=DIRECTION('ref_axis',(-1.22464679914735E-16,0.,1.));
#379=DIRECTION('center_axis',(0.,-1.,0.));
#380=DIRECTION('ref_axis',(-1.,0.,0.));
#381=DIRECTION('center_axis',(0.,1.,0.));
#382=DIRECTION('ref_axis',(0.,0.,1.));
#383=DIRECTION('center_axis',(0.,1.,0.));
#384=DIRECTION('ref_axis',(1.,0.,0.));
#385=DIRECTION('center_axis',(0.,1.,0.));
#386=DIRECTION('ref_axis',(0.,0.,1.));
#387=DIRECTION('center_axis',(0.,1.,0.));
#388=DIRECTION('ref_axis',(1.,0.,0.));
#389=DIRECTION('center_axis',(-1.,0.,1.22464679914735E-16));
#390=DIRECTION('ref_axis',(-1.22464679914735E-16,0.,-1.));
#391=DIRECTION('center_axis',(0.,-1.,0.));
#392=DIRECTION('ref_axis',(0.,0.,-1.));
#393=DIRECTION('center_axis',(0.,-1.,0.));
#394=DIRECTION('ref_axis',(-1.,0.,0.));
#395=DIRECTION('center_axis',(0.,1.,0.));
#396=DIRECTION('ref_axis',(0.,0.,1.));
#397=DIRECTION('center_axis',(0.,1.,0.));
#398=DIRECTION('ref_axis',(-1.,0.,0.));
#399=DIRECTION('center_axis',(0.,1.,0.));
#400=DIRECTION('ref_axis',(-1.,0.,0.));
#401=DIRECTION('center_axis',(1.,0.,-1.22464679914735E-16));
#402=DIRECTION('ref_axis',(-1.22464679914735E-16,0.,-1.));
#403=DIRECTION('center_axis',(0.,1.,0.));
#404=DIRECTION('ref_axis',(0.,0.,1.));
#405=DIRECTION('center_axis',(0.,-1.,0.));
#406=DIRECTION('ref_axis',(1.,0.,0.));
#407=DIRECTION('center_axis',(-1.,0.,1.22464679914735E-16));
#408=DIRECTION('ref_axis',(-1.22464679914735E-16,0.,-1.));
#409=DIRECTION('center_axis',(0.,1.,0.));
#410=DIRECTION('ref_axis',(1.,0.,0.));
#411=DIRECTION('center_axis',(0.,-1.,0.));
#412=DIRECTION('ref_axis',(1.,0.,0.));
#413=DIRECTION('center_axis',(0.,1.,0.));
#414=DIRECTION('ref_axis',(-1.,0.,0.));
#415=DIRECTION('',(0.,-1.,0.));
#416=DIRECTION('center_axis',(0.,-1.,0.));
#417=DIRECTION('ref_axis',(0.,0.,-1.));
#418=DIRECTION('center_axis',(0.,1.,0.));
#419=DIRECTION('ref_axis',(1.,0.,0.));
#420=DIRECTION('center_axis',(0.,1.,0.));
#421=DIRECTION('ref_axis',(1.,0.,0.));
#422=DIRECTION('',(0.857167300702112,-0.515038074910054,-1.04972719113862E-16));
#423=DIRECTION('center_axis',(0.,1.,0.));
#424=DIRECTION('ref_axis',(1.,0.,0.));
#425=DIRECTION('',(0.707106781186547,-0.707106781186548,-8.65956056235493E-17));
#426=DIRECTION('center_axis',(0.,1.,0.));
#427=DIRECTION('ref_axis',(1.,0.,0.));
#428=DIRECTION('center_axis',(0.,1.,0.));
#429=DIRECTION('ref_axis',(1.,0.,0.));
#430=DIRECTION('',(0.,-1.,0.));
#431=DIRECTION('center_axis',(0.,-1.,0.));
#432=DIRECTION('ref_axis',(-1.,0.,0.));
#433=DIRECTION('center_axis',(0.,1.,0.));
#434=DIRECTION('ref_axis',(1.,0.,0.));
#435=DIRECTION('',(0.707106781186548,-0.707106781186547,-8.65956056235493E-17));
#436=DIRECTION('center_axis',(0.,1.,0.));
#437=DIRECTION('ref_axis',(-1.,0.,0.));
#438=DIRECTION('',(0.,-1.,0.));
#439=CARTESIAN_POINT('',(0.,0.,0.));
#440=CARTESIAN_POINT('Origin',(0.,5.7,0.));
#441=CARTESIAN_POINT('',(-2.01293290365733E-15,6.64407773711239,-16.4368445257752));
#442=CARTESIAN_POINT('Origin',(0.,6.64407773711239,0.));
#443=CARTESIAN_POINT('',(2.23191879144606E-15,3.70015625610399,-18.2250000000001));
#444=CARTESIAN_POINT('Origin',(-2.22885717444818E-15,5.7,-18.2));
#445=CARTESIAN_POINT('Origin',(0.,3.70015625610399,0.));
#446=CARTESIAN_POINT('Origin',(0.,14.3622544989532,0.));
#447=CARTESIAN_POINT('',(20.7794620740069,14.2846087854224,-2.54475017169363E-15));
#448=CARTESIAN_POINT('',(-2.54475017169363E-15,14.2846087854224,-20.7794620740069));
#449=CARTESIAN_POINT('Origin',(0.,14.2846087854224,-1.27237508584682E-15));
#450=CARTESIAN_POINT('',(-2.515642363101E-15,14.0668121730495,-20.5417787794202));
#451=CARTESIAN_POINT('Origin',(-2.50926263255227E-15,14.3622544989532,-20.4896843261201));
#452=CARTESIAN_POINT('',(20.5417787794202,14.0668121730495,-2.515642363101E-15));
#453=CARTESIAN_POINT('Origin',(0.,14.0668121730495,-1.2578211815505E-15));
#454=CARTESIAN_POINT('Origin',(0.,14.0668121730495,-1.2578211815505E-15));
#455=CARTESIAN_POINT('Origin',(0.,14.2846087854224,-1.27237508584682E-15));
#456=CARTESIAN_POINT('Origin',(0.,18.,0.));
#457=CARTESIAN_POINT('',(22.4023156957185,20.3411809548975,-5.48698484205004E-15));
#458=CARTESIAN_POINT('',(-2.74349242102502E-15,20.3411809548975,22.4023156957185));
#459=CARTESIAN_POINT('Origin',(0.,20.3411809548975,-1.37174621051251E-15));
#460=CARTESIAN_POINT('',(21.7749981495186,18.,-2.66666817852475E-15));
#461=CARTESIAN_POINT('Origin',(0.,20.3411809548975,-1.37174621051251E-15));
#462=CARTESIAN_POINT('Origin',(0.,13.7711505072685,0.));
#463=CARTESIAN_POINT('',(17.,13.442301014537,-2.0818995585505E-15));
#464=CARTESIAN_POINT('',(18.8649981495186,13.7711505072685,-2.31029595997287E-15));
#465=CARTESIAN_POINT('Origin',(0.,13.442301014537,0.));
#466=CARTESIAN_POINT('Origin',(0.,20.6,0.));
#467=CARTESIAN_POINT('',(-2.62520062388715E-15,21.6,21.4363898694295));
#468=CARTESIAN_POINT('Origin',(-2.62520062388715E-15,20.6,21.4363898694295));
#469=CARTESIAN_POINT('Origin',(0.,21.6,0.));
#470=CARTESIAN_POINT('Origin',(-1.43937264275587E-15,21.6,0.));
#471=CARTESIAN_POINT('',(-5.,21.6,6.12323399573677E-16));
#472=CARTESIAN_POINT('Origin',(0.,21.6,0.));
#473=CARTESIAN_POINT('Origin',(0.,5.7,0.));
#474=CARTESIAN_POINT('',(-2.23498040844392E-15,3.7,-18.25));
#475=CARTESIAN_POINT('Origin',(0.,3.7,0.));
#476=CARTESIAN_POINT('Origin',(-2.23498040844392E-15,5.7,-18.25));
#477=CARTESIAN_POINT('Origin',(-20.25,3.7,0.));
#478=CARTESIAN_POINT('',(20.25,3.7,-2.47990976827339E-15));
#479=CARTESIAN_POINT('Origin',(0.,3.7,0.));
#480=CARTESIAN_POINT('Origin',(0.,5.8,0.));
#481=CARTESIAN_POINT('',(17.4409473096195,7.62905269038049,-2.13590002968232E-15));
#482=CARTESIAN_POINT('',(-2.13590002968232E-15,7.62905269038049,-17.4409473096195));
#483=CARTESIAN_POINT('Origin',(0.,7.62905269038049,0.));
#484=CARTESIAN_POINT('Origin',(0.,7.62905269038049,0.));
#485=CARTESIAN_POINT('Origin',(-2.23498040844392E-15,5.8,-18.25));
#486=CARTESIAN_POINT('Origin',(0.,3.,0.));
#487=CARTESIAN_POINT('',(20.25,3.,-2.47990976827339E-15));
#488=CARTESIAN_POINT('',(-2.47990976827339E-15,3.,-20.25));
#489=CARTESIAN_POINT('Origin',(0.,3.,0.));
#490=CARTESIAN_POINT('',(-2.11251572852918E-15,-1.66533453693773E-15,-17.25));
#491=CARTESIAN_POINT('Origin',(-2.11251572852918E-15,3.,-17.25));
#492=CARTESIAN_POINT('Origin',(0.,-1.66533453693773E-15,0.));
#493=CARTESIAN_POINT('Origin',(0.,3.,0.));
#494=CARTESIAN_POINT('Origin',(0.,2.41,0.));
#495=CARTESIAN_POINT('',(20.25,2.41,-2.47990976827339E-15));
#496=CARTESIAN_POINT('Origin',(-20.25,-1.4314542795316E-15,0.));
#497=CARTESIAN_POINT('Origin',(0.,6.64179786375629,0.));
#498=CARTESIAN_POINT('',(-4.188,7.9,5.12882079482912E-16));
#499=CARTESIAN_POINT('Origin',(0.,7.9,0.));
#500=CARTESIAN_POINT('',(0.,5.38359572751258,0.));
#501=CARTESIAN_POINT('',(-2.094,6.64179786375629,2.56441039741456E-16));
#502=CARTESIAN_POINT('Origin',(0.,21.344,0.));
#503=CARTESIAN_POINT('',(-4.188,20.788,5.12882079482911E-16));
#504=CARTESIAN_POINT('',(-4.744,21.344,5.80972441515504E-16));
#505=CARTESIAN_POINT('Origin',(0.,20.788,0.));
#506=CARTESIAN_POINT('Origin',(0.,14.9,0.));
#507=CARTESIAN_POINT('',(-4.188,14.9,5.12882079482912E-16));
#508=CARTESIAN_POINT('Origin',(0.,6.445,0.));
#509=CARTESIAN_POINT('',(17.,8.07,-2.0818995585505E-15));
#510=CARTESIAN_POINT('Origin',(0.,8.07,0.));
#511=CARTESIAN_POINT('',(18.625,6.445,-2.28090466341195E-15));
#512=CARTESIAN_POINT('Origin',(0.,10.7561505072685,0.));
#513=CARTESIAN_POINT('',(17.,10.7561505072685,-2.0818995585505E-15));
#514=UNCERTAINTY_MEASURE_WITH_UNIT(LENGTH_MEASURE(0.01),#518,
'DISTANCE_ACCURACY_VALUE',
'Maximum model space distance between geometric entities at asserted c
onnectivities');
#515=UNCERTAINTY_MEASURE_WITH_UNIT(LENGTH_MEASURE(0.01),#518,
'DISTANCE_ACCURACY_VALUE',
'Maximum model space distance between geometric entities at asserted c
onnectivities');
#516=(
GEOMETRIC_REPRESENTATION_CONTEXT(3)
GLOBAL_UNCERTAINTY_ASSIGNED_CONTEXT((#514))
GLOBAL_UNIT_ASSIGNED_CONTEXT((#518,#520,#521))
REPRESENTATION_CONTEXT('','3D')
);
#517=(
GEOMETRIC_REPRESENTATION_CONTEXT(3)
GLOBAL_UNCERTAINTY_ASSIGNED_CONTEXT((#515))
GLOBAL_UNIT_ASSIGNED_CONTEXT((#518,#520,#521))
REPRESENTATION_CONTEXT('','3D')
);
#518=(
LENGTH_UNIT()
NAMED_UNIT(*)
SI_UNIT(.MILLI.,.METRE.)
);
#519=(
LENGTH_UNIT()
NAMED_UNIT(*)
SI_UNIT(.CENTI.,.METRE.)
);
#520=(
NAMED_UNIT(*)
PLANE_ANGLE_UNIT()
SI_UNIT($,.RADIAN.)
);
#521=(
NAMED_UNIT(*)
SI_UNIT($,.STERADIAN.)
SOLID_ANGLE_UNIT()
);
#522=SHAPE_DEFINITION_REPRESENTATION(#523,#524);
#523=PRODUCT_DEFINITION_SHAPE('',$,#526);
#524=SHAPE_REPRESENTATION('',(#296),#516);
#525=DESIGN_CONTEXT('part definition',#530,'design');
#526=PRODUCT_DEFINITION('ZATKA_SESTAVA_2016-01-00-15',
'ZATKA_SESTAVA_2016-01-00-15',#527,#525);
#527=PRODUCT_DEFINITION_FORMATION('',$,#532);
#528=PRODUCT_RELATED_PRODUCT_CATEGORY('ZATKA_SESTAVA_2016-01-00-15',
'ZATKA_SESTAVA_2016-01-00-15',(#532));
#529=APPLICATION_PROTOCOL_DEFINITION('international standard',
'ap203_configuration_controlled_3d_design_of_mechanical_parts_and_asse
mblies_mim_lf',2004,#530);
#530=APPLICATION_CONTEXT(
'Configuration Controlled 3D Design of Mechanical Parts and Assemblies');
#531=MECHANICAL_CONTEXT('part definition',#530,'mechanical');
#532=PRODUCT('ZATKA_SESTAVA_2016-01-00-15',
'ZATKA_SESTAVA_2016-01-00-15',$,(#531));
#533=PRESENTATION_STYLE_ASSIGNMENT((#536));
#534=PRESENTATION_STYLE_ASSIGNMENT((#537));
#535=PRESENTATION_STYLE_ASSIGNMENT((#538));
#536=SURFACE_STYLE_USAGE(.BOTH.,#545);
#537=SURFACE_STYLE_USAGE(.BOTH.,#546);
#538=SURFACE_STYLE_USAGE(.BOTH.,#547);
#539=SURFACE_STYLE_RENDERING_WITH_PROPERTIES($,#557,(#542));
#540=SURFACE_STYLE_RENDERING_WITH_PROPERTIES($,#558,(#543));
#541=SURFACE_STYLE_RENDERING_WITH_PROPERTIES($,#559,(#544));
#542=SURFACE_STYLE_TRANSPARENT(0.);
#543=SURFACE_STYLE_TRANSPARENT(0.);
#544=SURFACE_STYLE_TRANSPARENT(0.);
#545=SURFACE_SIDE_STYLE('',(#548,#539));
#546=SURFACE_SIDE_STYLE('',(#549,#540));
#547=SURFACE_SIDE_STYLE('',(#550,#541));
#548=SURFACE_STYLE_FILL_AREA(#551);
#549=SURFACE_STYLE_FILL_AREA(#552);
#550=SURFACE_STYLE_FILL_AREA(#553);
#551=FILL_AREA_STYLE('',(#554));
#552=FILL_AREA_STYLE('',(#555));
#553=FILL_AREA_STYLE('',(#556));
#554=FILL_AREA_STYLE_COLOUR('',#557);
#555=FILL_AREA_STYLE_COLOUR('',#558);
#556=FILL_AREA_STYLE_COLOUR('',#559);
#557=COLOUR_RGB('',0.749019607843137,0.749019607843137,0.749019607843137);
#558=COLOUR_RGB('',0.250980392156863,0.250980392156863,0.250980392156863);
#559=COLOUR_RGB('',1.,1.,1.);
ENDSEC;
END-ISO-10303-21;
