ISO-10303-21;
HEADER;
/* Generated by software containing ST-Developer
 * from STEP Tools, Inc. (www.steptools.com) 
 */

FILE_DESCRIPTION(
/* description */ (''),
/* implementation_level */ '2;1');

FILE_NAME(
/* name */ 'C:\\Users\\PC\\Desktop\\SLEPE_MODELY\\CEP_2_ST-2016-01-004
8.stp',
/* time_stamp */ '2018-02-05T12:42:37+01:00',
/* author */ ('PC'),
/* organization */ (''),
/* preprocessor_version */ 'ST-DEVELOPER v16.13',
/* originating_system */ 'Autodesk Inventor 2018',
/* authorisation */ '');

FILE_SCHEMA (('AUTOMOTIVE_DESIGN { 1 0 10303 214 3 1 1 }'));
ENDSEC;

DATA;
#10=MECHANICAL_DESIGN_GEOMETRIC_PRESENTATION_REPRESENTATION('',(#164,#167,
#165,#166,#168,#176,#173,#172,#175,#177,#178,#169,#171,#170,#174,#179),
#356);
#11=SHAPE_REPRESENTATION_RELATIONSHIP('SRR','None',#363,#12);
#12=ADVANCED_BREP_SHAPE_REPRESENTATION('',(#13),#355);
#13=MANIFOLD_SOLID_BREP('T\X2\011B\X0\leso1',#195);
#14=TOROIDAL_SURFACE('',#222,21.3917031645889,1.);
#15=TOROIDAL_SURFACE('',#228,17.25,3.);
#16=PLANE('',#220);
#17=PLANE('',#225);
#18=PLANE('',#231);
#19=PLANE('',#235);
#20=CYLINDRICAL_SURFACE('',#218,12.2);
#21=CYLINDRICAL_SURFACE('',#233,20.25);
#22=CYLINDRICAL_SURFACE('',#238,9.);
#23=CYLINDRICAL_SURFACE('',#241,17.);
#24=CYLINDRICAL_SURFACE('',#244,5.5);
#25=FACE_BOUND('',#56,.T.);
#26=FACE_BOUND('',#58,.T.);
#27=FACE_BOUND('',#60,.T.);
#28=FACE_BOUND('',#62,.T.);
#29=FACE_BOUND('',#64,.T.);
#30=FACE_BOUND('',#66,.T.);
#31=FACE_BOUND('',#68,.T.);
#32=FACE_BOUND('',#70,.T.);
#33=FACE_BOUND('',#72,.T.);
#34=FACE_BOUND('',#74,.T.);
#35=FACE_BOUND('',#76,.T.);
#36=FACE_BOUND('',#78,.T.);
#37=FACE_BOUND('',#80,.T.);
#38=FACE_BOUND('',#82,.T.);
#39=FACE_BOUND('',#84,.T.);
#40=FACE_OUTER_BOUND('',#55,.T.);
#41=FACE_OUTER_BOUND('',#57,.T.);
#42=FACE_OUTER_BOUND('',#59,.T.);
#43=FACE_OUTER_BOUND('',#61,.T.);
#44=FACE_OUTER_BOUND('',#63,.T.);
#45=FACE_OUTER_BOUND('',#65,.T.);
#46=FACE_OUTER_BOUND('',#67,.T.);
#47=FACE_OUTER_BOUND('',#69,.T.);
#48=FACE_OUTER_BOUND('',#71,.T.);
#49=FACE_OUTER_BOUND('',#73,.T.);
#50=FACE_OUTER_BOUND('',#75,.T.);
#51=FACE_OUTER_BOUND('',#77,.T.);
#52=FACE_OUTER_BOUND('',#79,.T.);
#53=FACE_OUTER_BOUND('',#81,.T.);
#54=FACE_OUTER_BOUND('',#83,.T.);
#55=EDGE_LOOP('',(#130));
#56=EDGE_LOOP('',(#131));
#57=EDGE_LOOP('',(#132));
#58=EDGE_LOOP('',(#133));
#59=EDGE_LOOP('',(#134));
#60=EDGE_LOOP('',(#135));
#61=EDGE_LOOP('',(#136));
#62=EDGE_LOOP('',(#137));
#63=EDGE_LOOP('',(#138));
#64=EDGE_LOOP('',(#139));
#65=EDGE_LOOP('',(#140));
#66=EDGE_LOOP('',(#141));
#67=EDGE_LOOP('',(#142));
#68=EDGE_LOOP('',(#143));
#69=EDGE_LOOP('',(#144));
#70=EDGE_LOOP('',(#145));
#71=EDGE_LOOP('',(#146));
#72=EDGE_LOOP('',(#147));
#73=EDGE_LOOP('',(#148));
#74=EDGE_LOOP('',(#149));
#75=EDGE_LOOP('',(#150));
#76=EDGE_LOOP('',(#151));
#77=EDGE_LOOP('',(#152));
#78=EDGE_LOOP('',(#153));
#79=EDGE_LOOP('',(#154));
#80=EDGE_LOOP('',(#155));
#81=EDGE_LOOP('',(#156));
#82=EDGE_LOOP('',(#157));
#83=EDGE_LOOP('',(#158));
#84=EDGE_LOOP('',(#159));
#85=CIRCLE('',#216,12.2);
#86=CIRCLE('',#217,11.7);
#87=CIRCLE('',#219,12.2);
#88=CIRCLE('',#221,5.5);
#89=CIRCLE('',#223,22.3313957853748);
#90=CIRCLE('',#224,21.3917031645889);
#91=CIRCLE('',#227,21.);
#92=CIRCLE('',#229,17.25);
#93=CIRCLE('',#230,20.25);
#94=CIRCLE('',#232,9.);
#95=CIRCLE('',#234,20.25);
#96=CIRCLE('',#236,9.);
#97=CIRCLE('',#237,5.5);
#98=CIRCLE('',#240,17.);
#99=CIRCLE('',#242,17.);
#100=VERTEX_POINT('',#309);
#101=VERTEX_POINT('',#311);
#102=VERTEX_POINT('',#314);
#103=VERTEX_POINT('',#317);
#104=VERTEX_POINT('',#320);
#105=VERTEX_POINT('',#322);
#106=VERTEX_POINT('',#326);
#107=VERTEX_POINT('',#329);
#108=VERTEX_POINT('',#331);
#109=VERTEX_POINT('',#334);
#110=VERTEX_POINT('',#337);
#111=VERTEX_POINT('',#340);
#112=VERTEX_POINT('',#342);
#113=VERTEX_POINT('',#346);
#114=VERTEX_POINT('',#349);
#115=EDGE_CURVE('',#100,#100,#85,.T.);
#116=EDGE_CURVE('',#101,#101,#86,.T.);
#117=EDGE_CURVE('',#102,#102,#87,.T.);
#118=EDGE_CURVE('',#103,#103,#88,.T.);
#119=EDGE_CURVE('',#104,#104,#89,.T.);
#120=EDGE_CURVE('',#105,#105,#90,.T.);
#121=EDGE_CURVE('',#106,#106,#91,.T.);
#122=EDGE_CURVE('',#107,#107,#92,.T.);
#123=EDGE_CURVE('',#108,#108,#93,.T.);
#124=EDGE_CURVE('',#109,#109,#94,.T.);
#125=EDGE_CURVE('',#110,#110,#95,.T.);
#126=EDGE_CURVE('',#111,#111,#96,.T.);
#127=EDGE_CURVE('',#112,#112,#97,.T.);
#128=EDGE_CURVE('',#113,#113,#98,.T.);
#129=EDGE_CURVE('',#114,#114,#99,.T.);
#130=ORIENTED_EDGE('',*,*,#115,.T.);
#131=ORIENTED_EDGE('',*,*,#116,.T.);
#132=ORIENTED_EDGE('',*,*,#117,.T.);
#133=ORIENTED_EDGE('',*,*,#115,.F.);
#134=ORIENTED_EDGE('',*,*,#116,.F.);
#135=ORIENTED_EDGE('',*,*,#118,.F.);
#136=ORIENTED_EDGE('',*,*,#119,.T.);
#137=ORIENTED_EDGE('',*,*,#120,.T.);
#138=ORIENTED_EDGE('',*,*,#120,.F.);
#139=ORIENTED_EDGE('',*,*,#117,.F.);
#140=ORIENTED_EDGE('',*,*,#121,.T.);
#141=ORIENTED_EDGE('',*,*,#119,.F.);
#142=ORIENTED_EDGE('',*,*,#122,.T.);
#143=ORIENTED_EDGE('',*,*,#123,.T.);
#144=ORIENTED_EDGE('',*,*,#122,.F.);
#145=ORIENTED_EDGE('',*,*,#124,.T.);
#146=ORIENTED_EDGE('',*,*,#125,.F.);
#147=ORIENTED_EDGE('',*,*,#123,.F.);
#148=ORIENTED_EDGE('',*,*,#126,.F.);
#149=ORIENTED_EDGE('',*,*,#127,.T.);
#150=ORIENTED_EDGE('',*,*,#124,.F.);
#151=ORIENTED_EDGE('',*,*,#126,.T.);
#152=ORIENTED_EDGE('',*,*,#128,.F.);
#153=ORIENTED_EDGE('',*,*,#125,.T.);
#154=ORIENTED_EDGE('',*,*,#129,.F.);
#155=ORIENTED_EDGE('',*,*,#128,.T.);
#156=ORIENTED_EDGE('',*,*,#121,.F.);
#157=ORIENTED_EDGE('',*,*,#129,.T.);
#158=ORIENTED_EDGE('',*,*,#127,.F.);
#159=ORIENTED_EDGE('',*,*,#118,.T.);
#160=CONICAL_SURFACE('',#215,11.95,0.78539816339745);
#161=CONICAL_SURFACE('',#226,21.9099255856655,0.349065850398866);
#162=CONICAL_SURFACE('',#239,18.625,0.785398163397448);
#163=CONICAL_SURFACE('',#243,19.,0.872664625997164);
#164=STYLED_ITEM('',(#373),#180);
#165=STYLED_ITEM('',(#373),#181);
#166=STYLED_ITEM('',(#373),#182);
#167=STYLED_ITEM('',(#373),#183);
#168=STYLED_ITEM('',(#373),#184);
#169=STYLED_ITEM('',(#373),#185);
#170=STYLED_ITEM('',(#373),#186);
#171=STYLED_ITEM('',(#373),#187);
#172=STYLED_ITEM('',(#373),#188);
#173=STYLED_ITEM('',(#373),#189);
#174=STYLED_ITEM('',(#373),#190);
#175=STYLED_ITEM('',(#373),#191);
#176=STYLED_ITEM('',(#373),#192);
#177=STYLED_ITEM('',(#373),#193);
#178=STYLED_ITEM('',(#373),#194);
#179=STYLED_ITEM('',(#372),#13);
#180=ADVANCED_FACE('',(#40,#25),#160,.T.);
#181=ADVANCED_FACE('',(#41,#26),#20,.T.);
#182=ADVANCED_FACE('',(#42,#27),#16,.T.);
#183=ADVANCED_FACE('',(#43,#28),#14,.T.);
#184=ADVANCED_FACE('',(#44,#29),#17,.T.);
#185=ADVANCED_FACE('',(#45,#30),#161,.T.);
#186=ADVANCED_FACE('',(#46,#31),#15,.T.);
#187=ADVANCED_FACE('',(#47,#32),#18,.T.);
#188=ADVANCED_FACE('',(#48,#33),#21,.T.);
#189=ADVANCED_FACE('',(#49,#34),#19,.T.);
#190=ADVANCED_FACE('',(#50,#35),#22,.F.);
#191=ADVANCED_FACE('',(#51,#36),#162,.T.);
#192=ADVANCED_FACE('',(#52,#37),#23,.T.);
#193=ADVANCED_FACE('',(#53,#38),#163,.T.);
#194=ADVANCED_FACE('',(#54,#39),#24,.F.);
#195=CLOSED_SHELL('',(#180,#181,#182,#183,#184,#185,#186,#187,#188,#189,
#190,#191,#192,#193,#194));
#196=DERIVED_UNIT_ELEMENT(#198,0.);
#197=DERIVED_UNIT_ELEMENT(#358,0.);
#198=(
MASS_UNIT()
NAMED_UNIT(*)
SI_UNIT($,.GRAM.)
);
#199=DERIVED_UNIT((#196,#197));
#200=MEASURE_REPRESENTATION_ITEM('density measure',
POSITIVE_RATIO_MEASURE(1.),#199);
#201=PROPERTY_DEFINITION_REPRESENTATION(#206,#203);
#202=PROPERTY_DEFINITION_REPRESENTATION(#207,#204);
#203=REPRESENTATION('material name',(#205),#355);
#204=REPRESENTATION('density',(#200),#355);
#205=DESCRIPTIVE_REPRESENTATION_ITEM('V\X2\0161\X0\eobecn\X\E9',
'V\X2\0161\X0\eobecn\X\E9');
#206=PROPERTY_DEFINITION('material property','material name',#365);
#207=PROPERTY_DEFINITION('material property','density of part',#365);
#208=DATE_TIME_ROLE('creation_date');
#209=APPLIED_DATE_AND_TIME_ASSIGNMENT(#210,#208,(#365));
#210=DATE_AND_TIME(#211,#212);
#211=CALENDAR_DATE(2018,5,2);
#212=LOCAL_TIME(11,36,6.,#213);
#213=COORDINATED_UNIVERSAL_TIME_OFFSET(0,0,.BEHIND.);
#214=AXIS2_PLACEMENT_3D('placement',#307,#245,#246);
#215=AXIS2_PLACEMENT_3D('',#308,#247,#248);
#216=AXIS2_PLACEMENT_3D('',#310,#249,#250);
#217=AXIS2_PLACEMENT_3D('',#312,#251,#252);
#218=AXIS2_PLACEMENT_3D('',#313,#253,#254);
#219=AXIS2_PLACEMENT_3D('',#315,#255,#256);
#220=AXIS2_PLACEMENT_3D('',#316,#257,#258);
#221=AXIS2_PLACEMENT_3D('',#318,#259,#260);
#222=AXIS2_PLACEMENT_3D('',#319,#261,#262);
#223=AXIS2_PLACEMENT_3D('',#321,#263,#264);
#224=AXIS2_PLACEMENT_3D('',#323,#265,#266);
#225=AXIS2_PLACEMENT_3D('',#324,#267,#268);
#226=AXIS2_PLACEMENT_3D('',#325,#269,#270);
#227=AXIS2_PLACEMENT_3D('',#327,#271,#272);
#228=AXIS2_PLACEMENT_3D('',#328,#273,#274);
#229=AXIS2_PLACEMENT_3D('',#330,#275,#276);
#230=AXIS2_PLACEMENT_3D('',#332,#277,#278);
#231=AXIS2_PLACEMENT_3D('',#333,#279,#280);
#232=AXIS2_PLACEMENT_3D('',#335,#281,#282);
#233=AXIS2_PLACEMENT_3D('',#336,#283,#284);
#234=AXIS2_PLACEMENT_3D('',#338,#285,#286);
#235=AXIS2_PLACEMENT_3D('',#339,#287,#288);
#236=AXIS2_PLACEMENT_3D('',#341,#289,#290);
#237=AXIS2_PLACEMENT_3D('',#343,#291,#292);
#238=AXIS2_PLACEMENT_3D('',#344,#293,#294);
#239=AXIS2_PLACEMENT_3D('',#345,#295,#296);
#240=AXIS2_PLACEMENT_3D('',#347,#297,#298);
#241=AXIS2_PLACEMENT_3D('',#348,#299,#300);
#242=AXIS2_PLACEMENT_3D('',#350,#301,#302);
#243=AXIS2_PLACEMENT_3D('',#351,#303,#304);
#244=AXIS2_PLACEMENT_3D('',#352,#305,#306);
#245=DIRECTION('axis',(0.,0.,1.));
#246=DIRECTION('refdir',(1.,0.,0.));
#247=DIRECTION('center_axis',(1.15586471969075E-16,-1.,0.));
#248=DIRECTION('ref_axis',(1.,5.65841724702165E-17,0.));
#249=DIRECTION('center_axis',(-1.15586471969075E-16,1.,0.));
#250=DIRECTION('ref_axis',(1.,0.,0.));
#251=DIRECTION('center_axis',(1.15586471969075E-16,-1.,0.));
#252=DIRECTION('ref_axis',(1.,1.15586471969075E-16,0.));
#253=DIRECTION('center_axis',(-1.15586471969075E-16,1.,0.));
#254=DIRECTION('ref_axis',(-1.,0.,0.));
#255=DIRECTION('center_axis',(-1.15586471969075E-16,1.,0.));
#256=DIRECTION('ref_axis',(1.,1.15586471969075E-16,0.));
#257=DIRECTION('center_axis',(-1.15586471969075E-16,1.,0.));
#258=DIRECTION('ref_axis',(0.,0.,1.));
#259=DIRECTION('center_axis',(-1.15586471969075E-16,1.,0.));
#260=DIRECTION('ref_axis',(1.,1.15586471969075E-16,0.));
#261=DIRECTION('center_axis',(-1.15586471969075E-16,1.,0.));
#262=DIRECTION('ref_axis',(0.,0.,1.));
#263=DIRECTION('center_axis',(-1.98863167407074E-16,1.,1.35640775156043E-32));
#264=DIRECTION('ref_axis',(1.,1.98863167407074E-16,-6.12323399573677E-17));
#265=DIRECTION('center_axis',(1.15586471969075E-16,-1.,0.));
#266=DIRECTION('ref_axis',(1.,1.15586471969075E-16,0.));
#267=DIRECTION('center_axis',(-1.15586471969075E-16,1.,0.));
#268=DIRECTION('ref_axis',(0.,0.,1.));
#269=DIRECTION('center_axis',(-1.15586471969075E-16,1.,0.));
#270=DIRECTION('ref_axis',(-1.,0.,0.));
#271=DIRECTION('center_axis',(-1.15586471969075E-16,1.,0.));
#272=DIRECTION('ref_axis',(1.,1.15586471969075E-16,0.));
#273=DIRECTION('center_axis',(-1.15586471969075E-16,1.,0.));
#274=DIRECTION('ref_axis',(0.,0.,1.));
#275=DIRECTION('center_axis',(-1.15586471969075E-16,1.,0.));
#276=DIRECTION('ref_axis',(1.,1.15586471969075E-16,0.));
#277=DIRECTION('center_axis',(1.15586471969075E-16,-1.,0.));
#278=DIRECTION('ref_axis',(1.,1.09651656753102E-16,0.));
#279=DIRECTION('center_axis',(1.15586471969075E-16,-1.,0.));
#280=DIRECTION('ref_axis',(0.,0.,-1.));
#281=DIRECTION('center_axis',(-1.15586471969075E-16,1.,0.));
#282=DIRECTION('ref_axis',(1.,1.15586471969075E-16,0.));
#283=DIRECTION('center_axis',(-1.15586471969075E-16,1.,0.));
#284=DIRECTION('ref_axis',(-1.,0.,0.));
#285=DIRECTION('center_axis',(-1.15586471969075E-16,1.,0.));
#286=DIRECTION('ref_axis',(1.,1.15586471969075E-16,0.));
#287=DIRECTION('center_axis',(1.15586471969075E-16,-1.,0.));
#288=DIRECTION('ref_axis',(0.,0.,-1.));
#289=DIRECTION('center_axis',(-1.15586471969075E-16,1.,0.));
#290=DIRECTION('ref_axis',(1.,1.15586471969075E-16,0.));
#291=DIRECTION('center_axis',(-1.15586471969075E-16,1.,0.));
#292=DIRECTION('ref_axis',(1.,1.15586471969075E-16,0.));
#293=DIRECTION('center_axis',(-1.15586471969075E-16,1.,0.));
#294=DIRECTION('ref_axis',(-1.,0.,0.));
#295=DIRECTION('center_axis',(1.15586471969075E-16,-1.,0.));
#296=DIRECTION('ref_axis',(-1.,0.,0.));
#297=DIRECTION('center_axis',(-1.15586471969075E-16,1.,0.));
#298=DIRECTION('ref_axis',(1.,1.15586471969075E-16,0.));
#299=DIRECTION('center_axis',(-1.15586471969075E-16,1.,0.));
#300=DIRECTION('ref_axis',(-1.,0.,0.));
#301=DIRECTION('center_axis',(-1.15586471969075E-16,1.,0.));
#302=DIRECTION('ref_axis',(1.,1.15586471969075E-16,0.));
#303=DIRECTION('center_axis',(-1.15586471969075E-16,1.,0.));
#304=DIRECTION('ref_axis',(-1.,0.,0.));
#305=DIRECTION('center_axis',(-1.15586471969075E-16,1.,0.));
#306=DIRECTION('ref_axis',(-1.,0.,0.));
#307=CARTESIAN_POINT('',(0.,0.,0.));
#308=CARTESIAN_POINT('Origin',(-7.44346956756451E-16,25.65,0.));
#309=CARTESIAN_POINT('',(-12.2,25.4,1.49406909495977E-15));
#310=CARTESIAN_POINT('Origin',(-7.15450338764183E-16,25.4,0.));
#311=CARTESIAN_POINT('',(-11.7,25.9,-1.4328367550024E-15));
#312=CARTESIAN_POINT('Origin',(-7.7324357474872E-16,25.9,0.));
#313=CARTESIAN_POINT('Origin',(-5.42070630810571E-16,23.9,0.));
#314=CARTESIAN_POINT('',(-12.2,21.9,0.));
#315=CARTESIAN_POINT('Origin',(-3.10897686872421E-16,21.9,0.));
#316=CARTESIAN_POINT('Origin',(-5.5,25.9,0.));
#317=CARTESIAN_POINT('',(-5.5,25.9,0.));
#318=CARTESIAN_POINT('Origin',(-7.7324357474872E-16,25.9,0.));
#319=CARTESIAN_POINT('Origin',(-1.95311214903347E-16,20.9,0.));
#320=CARTESIAN_POINT('',(-22.3313957853748,20.5579798566743,2.7348072369052E-15));
#321=CARTESIAN_POINT('Origin',(0.,20.5579798566743,-1.3674036184526E-15));
#322=CARTESIAN_POINT('',(-21.3917031645889,21.9,-2.61972808088241E-15));
#323=CARTESIAN_POINT('Origin',(-3.10897686872422E-16,21.9,0.));
#324=CARTESIAN_POINT('Origin',(-5.5,21.9,0.));
#325=CARTESIAN_POINT('Origin',(-2.19315069497347E-17,19.4,0.));
#326=CARTESIAN_POINT('',(-21.,16.9,0.));
#327=CARTESIAN_POINT('Origin',(2.67034672972952E-16,16.9,0.));
#328=CARTESIAN_POINT('Origin',(1.87368663334309E-15,3.,0.));
#329=CARTESIAN_POINT('',(-17.25,-5.32453571534201E-15,2.11251572852918E-15));
#330=CARTESIAN_POINT('Origin',(2.22044604925031E-15,-3.33066907387547E-15,
0.));
#331=CARTESIAN_POINT('',(-20.25,2.99999999999999,-2.47990976827339E-15));
#332=CARTESIAN_POINT('Origin',(1.87368663334309E-15,3.,0.));
#333=CARTESIAN_POINT('Origin',(-20.25,-5.55111512312578E-15,0.));
#334=CARTESIAN_POINT('',(-9.,-2.46519032881566E-31,0.));
#335=CARTESIAN_POINT('Origin',(2.22044604925031E-15,0.,0.));
#336=CARTESIAN_POINT('Origin',(1.93379159876701E-15,2.48,0.));
#337=CARTESIAN_POINT('',(-20.25,4.95999999999999,0.));
#338=CARTESIAN_POINT('Origin',(1.6471371482837E-15,4.96,0.));
#339=CARTESIAN_POINT('Origin',(-9.,11.,0.));
#340=CARTESIAN_POINT('',(-9.,11.,0.));
#341=CARTESIAN_POINT('Origin',(9.48994857590492E-16,11.,0.));
#342=CARTESIAN_POINT('',(-5.5,11.,0.));
#343=CARTESIAN_POINT('Origin',(9.48994857590492E-16,11.,0.));
#344=CARTESIAN_POINT('Origin',(1.5847204534204E-15,5.5,0.));
#345=CARTESIAN_POINT('Origin',(1.45930913133396E-15,6.585,0.));
#346=CARTESIAN_POINT('',(-17.,8.21,0.));
#347=CARTESIAN_POINT('Origin',(1.27148111438421E-15,8.21,0.));
#348=CARTESIAN_POINT('Origin',(9.63235025675249E-16,10.8768007376454,0.));
#349=CARTESIAN_POINT('',(-17.,13.5436014752909,0.));
#350=CARTESIAN_POINT('Origin',(6.54988936966287E-16,13.5436014752909,0.));
#351=CARTESIAN_POINT('Origin',(4.6101180496962E-16,15.2218007376454,0.));
#352=CARTESIAN_POINT('Origin',(-5.42070630810571E-16,23.9,0.));
#353=UNCERTAINTY_MEASURE_WITH_UNIT(LENGTH_MEASURE(0.01),#357,
'DISTANCE_ACCURACY_VALUE',
'Maximum model space distance between geometric entities at asserted c
onnectivities');
#354=UNCERTAINTY_MEASURE_WITH_UNIT(LENGTH_MEASURE(0.01),#357,
'DISTANCE_ACCURACY_VALUE',
'Maximum model space distance between geometric entities at asserted c
onnectivities');
#355=(
GEOMETRIC_REPRESENTATION_CONTEXT(3)
GLOBAL_UNCERTAINTY_ASSIGNED_CONTEXT((#353))
GLOBAL_UNIT_ASSIGNED_CONTEXT((#357,#360,#359))
REPRESENTATION_CONTEXT('','3D')
);
#356=(
GEOMETRIC_REPRESENTATION_CONTEXT(3)
GLOBAL_UNCERTAINTY_ASSIGNED_CONTEXT((#354))
GLOBAL_UNIT_ASSIGNED_CONTEXT((#357,#360,#359))
REPRESENTATION_CONTEXT('','3D')
);
#357=(
LENGTH_UNIT()
NAMED_UNIT(*)
SI_UNIT(.MILLI.,.METRE.)
);
#358=(
LENGTH_UNIT()
NAMED_UNIT(*)
SI_UNIT(.CENTI.,.METRE.)
);
#359=(
NAMED_UNIT(*)
SI_UNIT($,.STERADIAN.)
SOLID_ANGLE_UNIT()
);
#360=(
NAMED_UNIT(*)
PLANE_ANGLE_UNIT()
SI_UNIT($,.RADIAN.)
);
#361=SHAPE_DEFINITION_REPRESENTATION(#362,#363);
#362=PRODUCT_DEFINITION_SHAPE('',$,#365);
#363=SHAPE_REPRESENTATION('',(#214),#355);
#364=PRODUCT_DEFINITION_CONTEXT('part definition',#369,'design');
#365=PRODUCT_DEFINITION('Sou\X2\010D00E1\X0\st9','Sou\X2\010D00E1\X0\s
t9',#366,#364);
#366=PRODUCT_DEFINITION_FORMATION('',$,#371);
#367=PRODUCT_RELATED_PRODUCT_CATEGORY('Sou\X2\010D00E1\X0\st9',
'Sou\X2\010D00E1\X0\st9',(#371));
#368=APPLICATION_PROTOCOL_DEFINITION('international standard',
'automotive_design',2009,#369);
#369=APPLICATION_CONTEXT(
'Core Data for Automotive Mechanical Design Process');
#370=PRODUCT_CONTEXT('part definition',#369,'mechanical');
#371=PRODUCT('Sou\X2\010D00E1\X0\st9','Sou\X2\010D00E1\X0\st9',$,(#370));
#372=PRESENTATION_STYLE_ASSIGNMENT((#374));
#373=PRESENTATION_STYLE_ASSIGNMENT((#375));
#374=SURFACE_STYLE_USAGE(.BOTH.,#376);
#375=SURFACE_STYLE_USAGE(.BOTH.,#377);
#376=SURFACE_SIDE_STYLE('',(#378));
#377=SURFACE_SIDE_STYLE('',(#379));
#378=SURFACE_STYLE_FILL_AREA(#380);
#379=SURFACE_STYLE_FILL_AREA(#381);
#380=FILL_AREA_STYLE('',(#382));
#381=FILL_AREA_STYLE('',(#383));
#382=FILL_AREA_STYLE_COLOUR('',#384);
#383=FILL_AREA_STYLE_COLOUR('',#385);
#384=COLOUR_RGB('',0.749019607843137,0.749019607843137,0.749019607843137);
#385=COLOUR_RGB('',0.745098039215686,0.737254901960784,0.729411764705882);
ENDSEC;
END-ISO-10303-21;
