ISO-10303-21;
HEADER;
/* Generated by software containing ST-Developer
 * from STEP Tools, Inc. (www.steptools.com) 
 */

FILE_DESCRIPTION(
/* description */ (''),
/* implementation_level */ '2;1');

FILE_NAME(
/* name */ 'C:\\Users\\PC\\Desktop\\SLEPE_MODELY\\CEP-2016-01-0007.stp',

/* time_stamp */ '2018-02-05T12:32:49+01:00',
/* author */ ('PC'),
/* organization */ (''),
/* preprocessor_version */ 'ST-DEVELOPER v16.13',
/* originating_system */ 'Autodesk Inventor 2018',
/* authorisation */ '');

FILE_SCHEMA (('AUTOMOTIVE_DESIGN { 1 0 10303 214 3 1 1 }'));
ENDSEC;

DATA;
#10=MECHANICAL_DESIGN_GEOMETRIC_PRESENTATION_REPRESENTATION('',(#178,#181,
#182,#175,#179,#174,#177,#180,#176,#189,#188,#184,#185,#187,#186,#183,#190),
#377);
#11=SHAPE_REPRESENTATION_RELATIONSHIP('SRR','None',#384,#12);
#12=ADVANCED_BREP_SHAPE_REPRESENTATION('',(#13),#376);
#13=MANIFOLD_SOLID_BREP('T\X2\011B\X0\leso1',#207);
#14=TOROIDAL_SURFACE('',#242,17.25,3.);
#15=TOROIDAL_SURFACE('',#248,21.2332696627792,1.);
#16=PLANE('',#232);
#17=PLANE('',#234);
#18=PLANE('',#247);
#19=PLANE('',#253);
#20=CYLINDRICAL_SURFACE('',#230,5.25);
#21=CYLINDRICAL_SURFACE('',#236,9.);
#22=CYLINDRICAL_SURFACE('',#240,12.5);
#23=CYLINDRICAL_SURFACE('',#245,20.25);
#24=CYLINDRICAL_SURFACE('',#256,17.);
#25=FACE_BOUND('',#58,.T.);
#26=FACE_BOUND('',#60,.T.);
#27=FACE_BOUND('',#62,.T.);
#28=FACE_BOUND('',#64,.T.);
#29=FACE_BOUND('',#66,.T.);
#30=FACE_BOUND('',#68,.T.);
#31=FACE_BOUND('',#70,.T.);
#32=FACE_BOUND('',#72,.T.);
#33=FACE_BOUND('',#74,.T.);
#34=FACE_BOUND('',#76,.T.);
#35=FACE_BOUND('',#78,.T.);
#36=FACE_BOUND('',#80,.T.);
#37=FACE_BOUND('',#82,.T.);
#38=FACE_BOUND('',#84,.T.);
#39=FACE_BOUND('',#86,.T.);
#40=FACE_BOUND('',#88,.T.);
#41=FACE_OUTER_BOUND('',#57,.T.);
#42=FACE_OUTER_BOUND('',#59,.T.);
#43=FACE_OUTER_BOUND('',#61,.T.);
#44=FACE_OUTER_BOUND('',#63,.T.);
#45=FACE_OUTER_BOUND('',#65,.T.);
#46=FACE_OUTER_BOUND('',#67,.T.);
#47=FACE_OUTER_BOUND('',#69,.T.);
#48=FACE_OUTER_BOUND('',#71,.T.);
#49=FACE_OUTER_BOUND('',#73,.T.);
#50=FACE_OUTER_BOUND('',#75,.T.);
#51=FACE_OUTER_BOUND('',#77,.T.);
#52=FACE_OUTER_BOUND('',#79,.T.);
#53=FACE_OUTER_BOUND('',#81,.T.);
#54=FACE_OUTER_BOUND('',#83,.T.);
#55=FACE_OUTER_BOUND('',#85,.T.);
#56=FACE_OUTER_BOUND('',#87,.T.);
#57=EDGE_LOOP('',(#137));
#58=EDGE_LOOP('',(#138));
#59=EDGE_LOOP('',(#139));
#60=EDGE_LOOP('',(#140));
#61=EDGE_LOOP('',(#141));
#62=EDGE_LOOP('',(#142));
#63=EDGE_LOOP('',(#143));
#64=EDGE_LOOP('',(#144));
#65=EDGE_LOOP('',(#145));
#66=EDGE_LOOP('',(#146));
#67=EDGE_LOOP('',(#147));
#68=EDGE_LOOP('',(#148));
#69=EDGE_LOOP('',(#149));
#70=EDGE_LOOP('',(#150));
#71=EDGE_LOOP('',(#151));
#72=EDGE_LOOP('',(#152));
#73=EDGE_LOOP('',(#153));
#74=EDGE_LOOP('',(#154));
#75=EDGE_LOOP('',(#155));
#76=EDGE_LOOP('',(#156));
#77=EDGE_LOOP('',(#157));
#78=EDGE_LOOP('',(#158));
#79=EDGE_LOOP('',(#159));
#80=EDGE_LOOP('',(#160));
#81=EDGE_LOOP('',(#161));
#82=EDGE_LOOP('',(#162));
#83=EDGE_LOOP('',(#163));
#84=EDGE_LOOP('',(#164));
#85=EDGE_LOOP('',(#165));
#86=EDGE_LOOP('',(#166));
#87=EDGE_LOOP('',(#167));
#88=EDGE_LOOP('',(#168));
#89=CIRCLE('',#228,5.25);
#90=CIRCLE('',#229,5.75);
#91=CIRCLE('',#231,5.25);
#92=CIRCLE('',#233,12.);
#93=CIRCLE('',#235,9.);
#94=CIRCLE('',#237,9.);
#95=CIRCLE('',#239,12.5);
#96=CIRCLE('',#241,12.5);
#97=CIRCLE('',#243,17.25);
#98=CIRCLE('',#244,20.25);
#99=CIRCLE('',#246,20.25);
#100=CIRCLE('',#249,22.1729622835651);
#101=CIRCLE('',#250,21.2332696627792);
#102=CIRCLE('',#252,21.0425);
#103=CIRCLE('',#255,17.);
#104=CIRCLE('',#257,17.);
#105=VERTEX_POINT('',#327);
#106=VERTEX_POINT('',#329);
#107=VERTEX_POINT('',#332);
#108=VERTEX_POINT('',#335);
#109=VERTEX_POINT('',#338);
#110=VERTEX_POINT('',#341);
#111=VERTEX_POINT('',#344);
#112=VERTEX_POINT('',#347);
#113=VERTEX_POINT('',#350);
#114=VERTEX_POINT('',#352);
#115=VERTEX_POINT('',#355);
#116=VERTEX_POINT('',#359);
#117=VERTEX_POINT('',#361);
#118=VERTEX_POINT('',#364);
#119=VERTEX_POINT('',#368);
#120=VERTEX_POINT('',#371);
#121=EDGE_CURVE('',#105,#105,#89,.T.);
#122=EDGE_CURVE('',#106,#106,#90,.T.);
#123=EDGE_CURVE('',#107,#107,#91,.T.);
#124=EDGE_CURVE('',#108,#108,#92,.T.);
#125=EDGE_CURVE('',#109,#109,#93,.T.);
#126=EDGE_CURVE('',#110,#110,#94,.T.);
#127=EDGE_CURVE('',#111,#111,#95,.T.);
#128=EDGE_CURVE('',#112,#112,#96,.T.);
#129=EDGE_CURVE('',#113,#113,#97,.T.);
#130=EDGE_CURVE('',#114,#114,#98,.T.);
#131=EDGE_CURVE('',#115,#115,#99,.T.);
#132=EDGE_CURVE('',#116,#116,#100,.T.);
#133=EDGE_CURVE('',#117,#117,#101,.T.);
#134=EDGE_CURVE('',#118,#118,#102,.T.);
#135=EDGE_CURVE('',#119,#119,#103,.T.);
#136=EDGE_CURVE('',#120,#120,#104,.T.);
#137=ORIENTED_EDGE('',*,*,#121,.T.);
#138=ORIENTED_EDGE('',*,*,#122,.T.);
#139=ORIENTED_EDGE('',*,*,#123,.T.);
#140=ORIENTED_EDGE('',*,*,#121,.F.);
#141=ORIENTED_EDGE('',*,*,#124,.F.);
#142=ORIENTED_EDGE('',*,*,#122,.F.);
#143=ORIENTED_EDGE('',*,*,#125,.T.);
#144=ORIENTED_EDGE('',*,*,#123,.F.);
#145=ORIENTED_EDGE('',*,*,#126,.F.);
#146=ORIENTED_EDGE('',*,*,#125,.F.);
#147=ORIENTED_EDGE('',*,*,#127,.T.);
#148=ORIENTED_EDGE('',*,*,#124,.T.);
#149=ORIENTED_EDGE('',*,*,#128,.T.);
#150=ORIENTED_EDGE('',*,*,#127,.F.);
#151=ORIENTED_EDGE('',*,*,#129,.T.);
#152=ORIENTED_EDGE('',*,*,#130,.T.);
#153=ORIENTED_EDGE('',*,*,#131,.F.);
#154=ORIENTED_EDGE('',*,*,#130,.F.);
#155=ORIENTED_EDGE('',*,*,#129,.F.);
#156=ORIENTED_EDGE('',*,*,#126,.T.);
#157=ORIENTED_EDGE('',*,*,#132,.T.);
#158=ORIENTED_EDGE('',*,*,#133,.T.);
#159=ORIENTED_EDGE('',*,*,#134,.T.);
#160=ORIENTED_EDGE('',*,*,#132,.F.);
#161=ORIENTED_EDGE('',*,*,#133,.F.);
#162=ORIENTED_EDGE('',*,*,#128,.F.);
#163=ORIENTED_EDGE('',*,*,#135,.F.);
#164=ORIENTED_EDGE('',*,*,#131,.T.);
#165=ORIENTED_EDGE('',*,*,#136,.F.);
#166=ORIENTED_EDGE('',*,*,#135,.T.);
#167=ORIENTED_EDGE('',*,*,#134,.F.);
#168=ORIENTED_EDGE('',*,*,#136,.T.);
#169=CONICAL_SURFACE('',#227,5.5,0.785398163397451);
#170=CONICAL_SURFACE('',#238,12.25,0.785398163397446);
#171=CONICAL_SURFACE('',#251,21.8519588347607,0.349065850398867);
#172=CONICAL_SURFACE('',#254,18.625,0.785398163397448);
#173=CONICAL_SURFACE('',#258,19.02125,0.872664625997165);
#174=STYLED_ITEM('',(#394),#191);
#175=STYLED_ITEM('',(#394),#192);
#176=STYLED_ITEM('',(#394),#193);
#177=STYLED_ITEM('',(#394),#194);
#178=STYLED_ITEM('',(#394),#195);
#179=STYLED_ITEM('',(#394),#196);
#180=STYLED_ITEM('',(#394),#197);
#181=STYLED_ITEM('',(#394),#198);
#182=STYLED_ITEM('',(#394),#199);
#183=STYLED_ITEM('',(#394),#200);
#184=STYLED_ITEM('',(#394),#201);
#185=STYLED_ITEM('',(#394),#202);
#186=STYLED_ITEM('',(#394),#203);
#187=STYLED_ITEM('',(#394),#204);
#188=STYLED_ITEM('',(#394),#205);
#189=STYLED_ITEM('',(#394),#206);
#190=STYLED_ITEM('',(#393),#13);
#191=ADVANCED_FACE('',(#41,#25),#169,.F.);
#192=ADVANCED_FACE('',(#42,#26),#20,.F.);
#193=ADVANCED_FACE('',(#43,#27),#16,.T.);
#194=ADVANCED_FACE('',(#44,#28),#17,.T.);
#195=ADVANCED_FACE('',(#45,#29),#21,.F.);
#196=ADVANCED_FACE('',(#46,#30),#170,.T.);
#197=ADVANCED_FACE('',(#47,#31),#22,.T.);
#198=ADVANCED_FACE('',(#48,#32),#14,.T.);
#199=ADVANCED_FACE('',(#49,#33),#23,.T.);
#200=ADVANCED_FACE('',(#50,#34),#18,.T.);
#201=ADVANCED_FACE('',(#51,#35),#15,.T.);
#202=ADVANCED_FACE('',(#52,#36),#171,.T.);
#203=ADVANCED_FACE('',(#53,#37),#19,.T.);
#204=ADVANCED_FACE('',(#54,#38),#172,.T.);
#205=ADVANCED_FACE('',(#55,#39),#24,.T.);
#206=ADVANCED_FACE('',(#56,#40),#173,.T.);
#207=CLOSED_SHELL('',(#191,#192,#193,#194,#195,#196,#197,#198,#199,#200,
#201,#202,#203,#204,#205,#206));
#208=DERIVED_UNIT_ELEMENT(#210,0.);
#209=DERIVED_UNIT_ELEMENT(#379,0.);
#210=(
MASS_UNIT()
NAMED_UNIT(*)
SI_UNIT($,.GRAM.)
);
#211=DERIVED_UNIT((#208,#209));
#212=MEASURE_REPRESENTATION_ITEM('density measure',
POSITIVE_RATIO_MEASURE(1.),#211);
#213=PROPERTY_DEFINITION_REPRESENTATION(#218,#215);
#214=PROPERTY_DEFINITION_REPRESENTATION(#219,#216);
#215=REPRESENTATION('material name',(#217),#376);
#216=REPRESENTATION('density',(#212),#376);
#217=DESCRIPTIVE_REPRESENTATION_ITEM('V\X2\0161\X0\eobecn\X\E9',
'V\X2\0161\X0\eobecn\X\E9');
#218=PROPERTY_DEFINITION('material property','material name',#386);
#219=PROPERTY_DEFINITION('material property','density of part',#386);
#220=DATE_TIME_ROLE('creation_date');
#221=APPLIED_DATE_AND_TIME_ASSIGNMENT(#222,#220,(#386));
#222=DATE_AND_TIME(#223,#224);
#223=CALENDAR_DATE(2018,5,2);
#224=LOCAL_TIME(11,30,16.,#225);
#225=COORDINATED_UNIVERSAL_TIME_OFFSET(0,0,.BEHIND.);
#226=AXIS2_PLACEMENT_3D('placement',#325,#259,#260);
#227=AXIS2_PLACEMENT_3D('',#326,#261,#262);
#228=AXIS2_PLACEMENT_3D('',#328,#263,#264);
#229=AXIS2_PLACEMENT_3D('',#330,#265,#266);
#230=AXIS2_PLACEMENT_3D('',#331,#267,#268);
#231=AXIS2_PLACEMENT_3D('',#333,#269,#270);
#232=AXIS2_PLACEMENT_3D('',#334,#271,#272);
#233=AXIS2_PLACEMENT_3D('',#336,#273,#274);
#234=AXIS2_PLACEMENT_3D('',#337,#275,#276);
#235=AXIS2_PLACEMENT_3D('',#339,#277,#278);
#236=AXIS2_PLACEMENT_3D('',#340,#279,#280);
#237=AXIS2_PLACEMENT_3D('',#342,#281,#282);
#238=AXIS2_PLACEMENT_3D('',#343,#283,#284);
#239=AXIS2_PLACEMENT_3D('',#345,#285,#286);
#240=AXIS2_PLACEMENT_3D('',#346,#287,#288);
#241=AXIS2_PLACEMENT_3D('',#348,#289,#290);
#242=AXIS2_PLACEMENT_3D('',#349,#291,#292);
#243=AXIS2_PLACEMENT_3D('',#351,#293,#294);
#244=AXIS2_PLACEMENT_3D('',#353,#295,#296);
#245=AXIS2_PLACEMENT_3D('',#354,#297,#298);
#246=AXIS2_PLACEMENT_3D('',#356,#299,#300);
#247=AXIS2_PLACEMENT_3D('',#357,#301,#302);
#248=AXIS2_PLACEMENT_3D('',#358,#303,#304);
#249=AXIS2_PLACEMENT_3D('',#360,#305,#306);
#250=AXIS2_PLACEMENT_3D('',#362,#307,#308);
#251=AXIS2_PLACEMENT_3D('',#363,#309,#310);
#252=AXIS2_PLACEMENT_3D('',#365,#311,#312);
#253=AXIS2_PLACEMENT_3D('',#366,#313,#314);
#254=AXIS2_PLACEMENT_3D('',#367,#315,#316);
#255=AXIS2_PLACEMENT_3D('',#369,#317,#318);
#256=AXIS2_PLACEMENT_3D('',#370,#319,#320);
#257=AXIS2_PLACEMENT_3D('',#372,#321,#322);
#258=AXIS2_PLACEMENT_3D('',#373,#323,#324);
#259=DIRECTION('axis',(0.,0.,1.));
#260=DIRECTION('refdir',(1.,0.,0.));
#261=DIRECTION('center_axis',(0.,1.,0.));
#262=DIRECTION('ref_axis',(1.,0.,0.));
#263=DIRECTION('center_axis',(0.,-1.,0.));
#264=DIRECTION('ref_axis',(1.,0.,0.));
#265=DIRECTION('center_axis',(0.,1.,0.));
#266=DIRECTION('ref_axis',(1.,0.,0.));
#267=DIRECTION('center_axis',(0.,-1.,0.));
#268=DIRECTION('ref_axis',(1.,0.,0.));
#269=DIRECTION('center_axis',(0.,-1.,0.));
#270=DIRECTION('ref_axis',(1.,0.,0.));
#271=DIRECTION('center_axis',(0.,1.,0.));
#272=DIRECTION('ref_axis',(0.,0.,1.));
#273=DIRECTION('center_axis',(0.,-1.,0.));
#274=DIRECTION('ref_axis',(1.,0.,0.));
#275=DIRECTION('center_axis',(0.,-1.,0.));
#276=DIRECTION('ref_axis',(1.,0.,0.));
#277=DIRECTION('center_axis',(0.,-1.,0.));
#278=DIRECTION('ref_axis',(1.,0.,0.));
#279=DIRECTION('center_axis',(0.,-1.,0.));
#280=DIRECTION('ref_axis',(1.,0.,0.));
#281=DIRECTION('center_axis',(0.,1.,0.));
#282=DIRECTION('ref_axis',(1.,0.,0.));
#283=DIRECTION('center_axis',(0.,-1.,0.));
#284=DIRECTION('ref_axis',(1.,0.,0.));
#285=DIRECTION('center_axis',(0.,1.,0.));
#286=DIRECTION('ref_axis',(1.,0.,0.));
#287=DIRECTION('center_axis',(0.,1.,0.));
#288=DIRECTION('ref_axis',(-1.,0.,0.));
#289=DIRECTION('center_axis',(0.,1.,0.));
#290=DIRECTION('ref_axis',(1.,0.,0.));
#291=DIRECTION('center_axis',(0.,1.,0.));
#292=DIRECTION('ref_axis',(0.,0.,1.));
#293=DIRECTION('center_axis',(0.,1.,0.));
#294=DIRECTION('ref_axis',(1.,0.,0.));
#295=DIRECTION('center_axis',(0.,-1.,0.));
#296=DIRECTION('ref_axis',(1.,0.,0.));
#297=DIRECTION('center_axis',(0.,1.,0.));
#298=DIRECTION('ref_axis',(-1.,0.,0.));
#299=DIRECTION('center_axis',(0.,1.,0.));
#300=DIRECTION('ref_axis',(1.,0.,0.));
#301=DIRECTION('center_axis',(0.,-1.,0.));
#302=DIRECTION('ref_axis',(0.,0.,-1.));
#303=DIRECTION('center_axis',(0.,1.,0.));
#304=DIRECTION('ref_axis',(0.,0.,1.));
#305=DIRECTION('center_axis',(0.,1.,0.));
#306=DIRECTION('ref_axis',(1.,0.,-6.12323399573677E-17));
#307=DIRECTION('center_axis',(0.,-1.,0.));
#308=DIRECTION('ref_axis',(1.,0.,0.));
#309=DIRECTION('center_axis',(0.,1.,0.));
#310=DIRECTION('ref_axis',(-1.,0.,0.));
#311=DIRECTION('center_axis',(0.,1.,0.));
#312=DIRECTION('ref_axis',(1.,0.,0.));
#313=DIRECTION('center_axis',(0.,1.,0.));
#314=DIRECTION('ref_axis',(0.,0.,1.));
#315=DIRECTION('center_axis',(0.,-1.,0.));
#316=DIRECTION('ref_axis',(-1.,0.,0.));
#317=DIRECTION('center_axis',(0.,1.,0.));
#318=DIRECTION('ref_axis',(1.,0.,0.));
#319=DIRECTION('center_axis',(0.,1.,0.));
#320=DIRECTION('ref_axis',(-1.,0.,0.));
#321=DIRECTION('center_axis',(0.,1.,0.));
#322=DIRECTION('ref_axis',(1.,0.,0.));
#323=DIRECTION('center_axis',(0.,1.,0.));
#324=DIRECTION('ref_axis',(-1.,0.,0.));
#325=CARTESIAN_POINT('',(0.,0.,0.));
#326=CARTESIAN_POINT('Origin',(0.,25.65,0.));
#327=CARTESIAN_POINT('',(-5.25,25.4,-6.42939569552361E-16));
#328=CARTESIAN_POINT('Origin',(0.,25.4,0.));
#329=CARTESIAN_POINT('',(-5.75,25.9,7.04171909509728E-16));
#330=CARTESIAN_POINT('Origin',(0.,25.9,0.));
#331=CARTESIAN_POINT('Origin',(0.,68.0099716158069,0.));
#332=CARTESIAN_POINT('',(-5.25,11.,-6.42939569552361E-16));
#333=CARTESIAN_POINT('Origin',(0.,11.,0.));
#334=CARTESIAN_POINT('Origin',(0.,25.9,0.));
#335=CARTESIAN_POINT('',(-12.,25.9,-1.46957615897682E-15));
#336=CARTESIAN_POINT('Origin',(0.,25.9,0.));
#337=CARTESIAN_POINT('Origin',(0.,11.,0.));
#338=CARTESIAN_POINT('',(9.,11.,0.));
#339=CARTESIAN_POINT('Origin',(0.,11.,0.));
#340=CARTESIAN_POINT('Origin',(0.,5.5,0.));
#341=CARTESIAN_POINT('',(9.,-7.00189318292989E-16,0.));
#342=CARTESIAN_POINT('Origin',(0.,-1.11022302462516E-15,0.));
#343=CARTESIAN_POINT('Origin',(0.,25.65,0.));
#344=CARTESIAN_POINT('',(-12.5,25.4,1.53080849893419E-15));
#345=CARTESIAN_POINT('Origin',(0.,25.4,0.));
#346=CARTESIAN_POINT('Origin',(0.,23.85,0.));
#347=CARTESIAN_POINT('',(-12.5,21.8,0.));
#348=CARTESIAN_POINT('Origin',(0.,21.8,0.));
#349=CARTESIAN_POINT('Origin',(0.,3.,0.));
#350=CARTESIAN_POINT('',(-17.25,-5.55111512312578E-16,2.11251572852918E-15));
#351=CARTESIAN_POINT('Origin',(0.,-5.55111512312578E-16,0.));
#352=CARTESIAN_POINT('',(-20.25,3.,-2.47990976827339E-15));
#353=CARTESIAN_POINT('Origin',(0.,3.,0.));
#354=CARTESIAN_POINT('Origin',(0.,2.4125,0.));
#355=CARTESIAN_POINT('',(-20.25,4.825,0.));
#356=CARTESIAN_POINT('Origin',(0.,4.825,0.));
#357=CARTESIAN_POINT('Origin',(-20.25,-7.00189318292989E-16,0.));
#358=CARTESIAN_POINT('Origin',(0.,20.8,0.));
#359=CARTESIAN_POINT('',(-22.1729622835651,20.4579798566743,2.7154047288183E-15));
#360=CARTESIAN_POINT('Origin',(0.,20.4579798566743,-1.35770236440915E-15));
#361=CARTESIAN_POINT('',(-21.2332696627792,21.8,-2.60032557279551E-15));
#362=CARTESIAN_POINT('Origin',(0.,21.8,0.));
#363=CARTESIAN_POINT('Origin',(0.,19.5760301295171,0.));
#364=CARTESIAN_POINT('',(-21.0425,17.3520602590342,0.));
#365=CARTESIAN_POINT('Origin',(0.,17.3520602590342,0.));
#366=CARTESIAN_POINT('Origin',(-12.5,21.8,0.));
#367=CARTESIAN_POINT('Origin',(0.,6.45,0.));
#368=CARTESIAN_POINT('',(-17.,8.075,0.));
#369=CARTESIAN_POINT('Origin',(0.,8.075,0.));
#370=CARTESIAN_POINT('Origin',(0.,11.0175,0.));
#371=CARTESIAN_POINT('',(-17.,13.96,0.));
#372=CARTESIAN_POINT('Origin',(0.,13.96,0.));
#373=CARTESIAN_POINT('Origin',(0.,15.6560301295171,0.));
#374=UNCERTAINTY_MEASURE_WITH_UNIT(LENGTH_MEASURE(0.01),#378,
'DISTANCE_ACCURACY_VALUE',
'Maximum model space distance between geometric entities at asserted c
onnectivities');
#375=UNCERTAINTY_MEASURE_WITH_UNIT(LENGTH_MEASURE(0.01),#378,
'DISTANCE_ACCURACY_VALUE',
'Maximum model space distance between geometric entities at asserted c
onnectivities');
#376=(
GEOMETRIC_REPRESENTATION_CONTEXT(3)
GLOBAL_UNCERTAINTY_ASSIGNED_CONTEXT((#374))
GLOBAL_UNIT_ASSIGNED_CONTEXT((#378,#381,#380))
REPRESENTATION_CONTEXT('','3D')
);
#377=(
GEOMETRIC_REPRESENTATION_CONTEXT(3)
GLOBAL_UNCERTAINTY_ASSIGNED_CONTEXT((#375))
GLOBAL_UNIT_ASSIGNED_CONTEXT((#378,#381,#380))
REPRESENTATION_CONTEXT('','3D')
);
#378=(
LENGTH_UNIT()
NAMED_UNIT(*)
SI_UNIT(.MILLI.,.METRE.)
);
#379=(
LENGTH_UNIT()
NAMED_UNIT(*)
SI_UNIT(.CENTI.,.METRE.)
);
#380=(
NAMED_UNIT(*)
SI_UNIT($,.STERADIAN.)
SOLID_ANGLE_UNIT()
);
#381=(
NAMED_UNIT(*)
PLANE_ANGLE_UNIT()
SI_UNIT($,.RADIAN.)
);
#382=SHAPE_DEFINITION_REPRESENTATION(#383,#384);
#383=PRODUCT_DEFINITION_SHAPE('',$,#386);
#384=SHAPE_REPRESENTATION('',(#226),#376);
#385=PRODUCT_DEFINITION_CONTEXT('part definition',#390,'design');
#386=PRODUCT_DEFINITION('Sou\X2\010D00E1\X0\st8','Sou\X2\010D00E1\X0\s
t8',#387,#385);
#387=PRODUCT_DEFINITION_FORMATION('',$,#392);
#388=PRODUCT_RELATED_PRODUCT_CATEGORY('Sou\X2\010D00E1\X0\st8',
'Sou\X2\010D00E1\X0\st8',(#392));
#389=APPLICATION_PROTOCOL_DEFINITION('international standard',
'automotive_design',2009,#390);
#390=APPLICATION_CONTEXT(
'Core Data for Automotive Mechanical Design Process');
#391=PRODUCT_CONTEXT('part definition',#390,'mechanical');
#392=PRODUCT('Sou\X2\010D00E1\X0\st8','Sou\X2\010D00E1\X0\st8',$,(#391));
#393=PRESENTATION_STYLE_ASSIGNMENT((#395));
#394=PRESENTATION_STYLE_ASSIGNMENT((#396));
#395=SURFACE_STYLE_USAGE(.BOTH.,#397);
#396=SURFACE_STYLE_USAGE(.BOTH.,#398);
#397=SURFACE_SIDE_STYLE('',(#399));
#398=SURFACE_SIDE_STYLE('',(#400));
#399=SURFACE_STYLE_FILL_AREA(#401);
#400=SURFACE_STYLE_FILL_AREA(#402);
#401=FILL_AREA_STYLE('',(#403));
#402=FILL_AREA_STYLE('',(#404));
#403=FILL_AREA_STYLE_COLOUR('',#405);
#404=FILL_AREA_STYLE_COLOUR('',#406);
#405=COLOUR_RGB('',0.749019607843137,0.749019607843137,0.749019607843137);
#406=COLOUR_RGB('',1.,0.6,0.);
ENDSEC;
END-ISO-10303-21;
