ISO-10303-21;
HEADER;
/* Generated by software containing ST-Developer
 * from STEP Tools, Inc. (www.steptools.com) 
 */

FILE_DESCRIPTION(
/* description */ (''),
/* implementation_level */ '2;1');

FILE_NAME(
/* name */ 'C:\\Users\\PC\\Desktop\\SLEPE_MODELY\\ZATKA-2016-01-0051.s
tp',
/* time_stamp */ '2018-02-05T13:18:18+01:00',
/* author */ ('PC'),
/* organization */ (''),
/* preprocessor_version */ 'ST-DEVELOPER v16.13',
/* originating_system */ 'Autodesk Inventor 2018',
/* authorisation */ '');

FILE_SCHEMA (('AUTOMOTIVE_DESIGN { 1 0 10303 214 3 1 1 }'));
ENDSEC;

DATA;
#10=MECHANICAL_DESIGN_GEOMETRIC_PRESENTATION_REPRESENTATION('',(#167,#168,
#166,#165,#169,#170,#172,#171,#175,#177,#178,#174,#176,#173,#179,#180,#181),
#363);
#11=SHAPE_REPRESENTATION_RELATIONSHIP('SRR','None',#370,#12);
#12=ADVANCED_BREP_SHAPE_REPRESENTATION('',(#13),#362);
#13=MANIFOLD_SOLID_BREP('T\X2\011B\X0\leso1',#198);
#14=CYLINDRICAL_SURFACE('',#237,20.25);
#15=CYLINDRICAL_SURFACE('',#243,4.188);
#16=CYLINDRICAL_SURFACE('',#246,17.);
#17=CONICAL_SURFACE('',#226,21.9100744143345,0.349065850398866);
#18=CONICAL_SURFACE('',#239,2.094,1.02974425867665);
#19=CONICAL_SURFACE('',#241,4.744,0.785398163397448);
#20=CONICAL_SURFACE('',#244,18.625,0.785398163397449);
#21=CONICAL_SURFACE('',#248,19.0000744143345,0.872664625997165);
#22=PLANE('',#224);
#23=PLANE('',#230);
#24=PLANE('',#238);
#25=FACE_BOUND('',#56,.T.);
#26=FACE_BOUND('',#58,.T.);
#27=FACE_BOUND('',#60,.T.);
#28=FACE_BOUND('',#62,.T.);
#29=FACE_BOUND('',#64,.T.);
#30=FACE_BOUND('',#66,.T.);
#31=FACE_BOUND('',#68,.T.);
#32=FACE_BOUND('',#70,.T.);
#33=FACE_BOUND('',#72,.T.);
#34=FACE_BOUND('',#76,.T.);
#35=FACE_BOUND('',#78,.T.);
#36=FACE_BOUND('',#80,.T.);
#37=FACE_BOUND('',#82,.T.);
#38=FACE_BOUND('',#84,.T.);
#39=FACE_OUTER_BOUND('',#55,.T.);
#40=FACE_OUTER_BOUND('',#57,.T.);
#41=FACE_OUTER_BOUND('',#59,.T.);
#42=FACE_OUTER_BOUND('',#61,.T.);
#43=FACE_OUTER_BOUND('',#63,.T.);
#44=FACE_OUTER_BOUND('',#65,.T.);
#45=FACE_OUTER_BOUND('',#67,.T.);
#46=FACE_OUTER_BOUND('',#69,.T.);
#47=FACE_OUTER_BOUND('',#71,.T.);
#48=FACE_OUTER_BOUND('',#73,.T.);
#49=FACE_OUTER_BOUND('',#74,.T.);
#50=FACE_OUTER_BOUND('',#75,.T.);
#51=FACE_OUTER_BOUND('',#77,.T.);
#52=FACE_OUTER_BOUND('',#79,.T.);
#53=FACE_OUTER_BOUND('',#81,.T.);
#54=FACE_OUTER_BOUND('',#83,.T.);
#55=EDGE_LOOP('',(#130));
#56=EDGE_LOOP('',(#131));
#57=EDGE_LOOP('',(#132));
#58=EDGE_LOOP('',(#133));
#59=EDGE_LOOP('',(#134));
#60=EDGE_LOOP('',(#135));
#61=EDGE_LOOP('',(#136));
#62=EDGE_LOOP('',(#137));
#63=EDGE_LOOP('',(#138));
#64=EDGE_LOOP('',(#139));
#65=EDGE_LOOP('',(#140));
#66=EDGE_LOOP('',(#141));
#67=EDGE_LOOP('',(#142));
#68=EDGE_LOOP('',(#143));
#69=EDGE_LOOP('',(#144));
#70=EDGE_LOOP('',(#145));
#71=EDGE_LOOP('',(#146));
#72=EDGE_LOOP('',(#147));
#73=EDGE_LOOP('',(#148));
#74=EDGE_LOOP('',(#149));
#75=EDGE_LOOP('',(#150));
#76=EDGE_LOOP('',(#151));
#77=EDGE_LOOP('',(#152));
#78=EDGE_LOOP('',(#153));
#79=EDGE_LOOP('',(#154));
#80=EDGE_LOOP('',(#155));
#81=EDGE_LOOP('',(#156));
#82=EDGE_LOOP('',(#157));
#83=EDGE_LOOP('',(#158));
#84=EDGE_LOOP('',(#159));
#85=CIRCLE('',#219,18.2250000000001);
#86=CIRCLE('',#220,16.4368445257752);
#87=CIRCLE('',#222,21.282660922978);
#88=CIRCLE('',#223,22.2223535437639);
#89=CIRCLE('',#225,5.);
#90=CIRCLE('',#227,21.000148828669);
#91=CIRCLE('',#229,18.25);
#92=CIRCLE('',#231,20.25);
#93=CIRCLE('',#233,17.4271243444677);
#94=CIRCLE('',#235,17.25);
#95=CIRCLE('',#236,20.25);
#96=CIRCLE('',#240,4.188);
#97=CIRCLE('',#242,4.188);
#98=CIRCLE('',#245,17.);
#99=CIRCLE('',#247,17.);
#100=VERTEX_POINT('',#315);
#101=VERTEX_POINT('',#317);
#102=VERTEX_POINT('',#320);
#103=VERTEX_POINT('',#322);
#104=VERTEX_POINT('',#325);
#105=VERTEX_POINT('',#328);
#106=VERTEX_POINT('',#331);
#107=VERTEX_POINT('',#334);
#108=VERTEX_POINT('',#337);
#109=VERTEX_POINT('',#340);
#110=VERTEX_POINT('',#342);
#111=VERTEX_POINT('',#347);
#112=VERTEX_POINT('',#350);
#113=VERTEX_POINT('',#354);
#114=VERTEX_POINT('',#357);
#115=EDGE_CURVE('',#100,#100,#85,.T.);
#116=EDGE_CURVE('',#101,#101,#86,.T.);
#117=EDGE_CURVE('',#102,#102,#87,.T.);
#118=EDGE_CURVE('',#103,#103,#88,.T.);
#119=EDGE_CURVE('',#104,#104,#89,.T.);
#120=EDGE_CURVE('',#105,#105,#90,.T.);
#121=EDGE_CURVE('',#106,#106,#91,.T.);
#122=EDGE_CURVE('',#107,#107,#92,.T.);
#123=EDGE_CURVE('',#108,#108,#93,.T.);
#124=EDGE_CURVE('',#109,#109,#94,.T.);
#125=EDGE_CURVE('',#110,#110,#95,.T.);
#126=EDGE_CURVE('',#111,#111,#96,.T.);
#127=EDGE_CURVE('',#112,#112,#97,.T.);
#128=EDGE_CURVE('',#113,#113,#98,.T.);
#129=EDGE_CURVE('',#114,#114,#99,.T.);
#130=ORIENTED_EDGE('',*,*,#115,.F.);
#131=ORIENTED_EDGE('',*,*,#116,.F.);
#132=ORIENTED_EDGE('',*,*,#117,.T.);
#133=ORIENTED_EDGE('',*,*,#118,.T.);
#134=ORIENTED_EDGE('',*,*,#117,.F.);
#135=ORIENTED_EDGE('',*,*,#119,.F.);
#136=ORIENTED_EDGE('',*,*,#120,.T.);
#137=ORIENTED_EDGE('',*,*,#118,.F.);
#138=ORIENTED_EDGE('',*,*,#115,.T.);
#139=ORIENTED_EDGE('',*,*,#121,.T.);
#140=ORIENTED_EDGE('',*,*,#122,.F.);
#141=ORIENTED_EDGE('',*,*,#121,.F.);
#142=ORIENTED_EDGE('',*,*,#123,.F.);
#143=ORIENTED_EDGE('',*,*,#116,.T.);
#144=ORIENTED_EDGE('',*,*,#124,.T.);
#145=ORIENTED_EDGE('',*,*,#125,.T.);
#146=ORIENTED_EDGE('',*,*,#122,.T.);
#147=ORIENTED_EDGE('',*,*,#125,.F.);
#148=ORIENTED_EDGE('',*,*,#124,.F.);
#149=ORIENTED_EDGE('',*,*,#126,.T.);
#150=ORIENTED_EDGE('',*,*,#119,.T.);
#151=ORIENTED_EDGE('',*,*,#127,.F.);
#152=ORIENTED_EDGE('',*,*,#127,.T.);
#153=ORIENTED_EDGE('',*,*,#126,.F.);
#154=ORIENTED_EDGE('',*,*,#123,.T.);
#155=ORIENTED_EDGE('',*,*,#128,.F.);
#156=ORIENTED_EDGE('',*,*,#129,.F.);
#157=ORIENTED_EDGE('',*,*,#128,.T.);
#158=ORIENTED_EDGE('',*,*,#120,.F.);
#159=ORIENTED_EDGE('',*,*,#129,.T.);
#160=TOROIDAL_SURFACE('',#218,18.2,2.);
#161=TOROIDAL_SURFACE('',#221,21.282660922978,1.);
#162=TOROIDAL_SURFACE('',#228,18.25,2.);
#163=TOROIDAL_SURFACE('',#232,18.25,2.);
#164=TOROIDAL_SURFACE('',#234,17.25,3.);
#165=STYLED_ITEM('',(#380),#182);
#166=STYLED_ITEM('',(#381),#183);
#167=STYLED_ITEM('',(#381),#184);
#168=STYLED_ITEM('',(#381),#185);
#169=STYLED_ITEM('',(#381),#186);
#170=STYLED_ITEM('',(#381),#187);
#171=STYLED_ITEM('',(#381),#188);
#172=STYLED_ITEM('',(#381),#189);
#173=STYLED_ITEM('',(#381),#190);
#174=STYLED_ITEM('',(#381),#191);
#175=STYLED_ITEM('',(#381),#192);
#176=STYLED_ITEM('',(#381),#193);
#177=STYLED_ITEM('',(#381),#194);
#178=STYLED_ITEM('',(#381),#195);
#179=STYLED_ITEM('',(#381),#196);
#180=STYLED_ITEM('',(#381),#197);
#181=STYLED_ITEM('',(#379),#13);
#182=ADVANCED_FACE('',(#39,#25),#160,.T.);
#183=ADVANCED_FACE('',(#40,#26),#161,.T.);
#184=ADVANCED_FACE('',(#41,#27),#22,.T.);
#185=ADVANCED_FACE('',(#42,#28),#17,.T.);
#186=ADVANCED_FACE('',(#43,#29),#162,.F.);
#187=ADVANCED_FACE('',(#44,#30),#23,.F.);
#188=ADVANCED_FACE('',(#45,#31),#163,.F.);
#189=ADVANCED_FACE('',(#46,#32),#164,.T.);
#190=ADVANCED_FACE('',(#47,#33),#14,.T.);
#191=ADVANCED_FACE('',(#48),#24,.T.);
#192=ADVANCED_FACE('',(#49),#18,.F.);
#193=ADVANCED_FACE('',(#50,#34),#19,.F.);
#194=ADVANCED_FACE('',(#51,#35),#15,.F.);
#195=ADVANCED_FACE('',(#52,#36),#20,.T.);
#196=ADVANCED_FACE('',(#53,#37),#16,.T.);
#197=ADVANCED_FACE('',(#54,#38),#21,.T.);
#198=CLOSED_SHELL('',(#182,#183,#184,#185,#186,#187,#188,#189,#190,#191,
#192,#193,#194,#195,#196,#197));
#199=DERIVED_UNIT_ELEMENT(#201,0.);
#200=DERIVED_UNIT_ELEMENT(#365,0.);
#201=(
MASS_UNIT()
NAMED_UNIT(*)
SI_UNIT($,.GRAM.)
);
#202=DERIVED_UNIT((#199,#200));
#203=MEASURE_REPRESENTATION_ITEM('density measure',
POSITIVE_RATIO_MEASURE(1.),#202);
#204=PROPERTY_DEFINITION_REPRESENTATION(#209,#206);
#205=PROPERTY_DEFINITION_REPRESENTATION(#210,#207);
#206=REPRESENTATION('material name',(#208),#362);
#207=REPRESENTATION('density',(#203),#362);
#208=DESCRIPTIVE_REPRESENTATION_ITEM('V\X2\0161\X0\eobecn\X\E9',
'V\X2\0161\X0\eobecn\X\E9');
#209=PROPERTY_DEFINITION('material property','material name',#372);
#210=PROPERTY_DEFINITION('material property','density of part',#372);
#211=DATE_TIME_ROLE('creation_date');
#212=APPLIED_DATE_AND_TIME_ASSIGNMENT(#213,#211,(#372));
#213=DATE_AND_TIME(#214,#215);
#214=CALENDAR_DATE(2018,5,2);
#215=LOCAL_TIME(12,14,18.,#216);
#216=COORDINATED_UNIVERSAL_TIME_OFFSET(0,0,.BEHIND.);
#217=AXIS2_PLACEMENT_3D('placement',#313,#249,#250);
#218=AXIS2_PLACEMENT_3D('',#314,#251,#252);
#219=AXIS2_PLACEMENT_3D('',#316,#253,#254);
#220=AXIS2_PLACEMENT_3D('',#318,#255,#256);
#221=AXIS2_PLACEMENT_3D('',#319,#257,#258);
#222=AXIS2_PLACEMENT_3D('',#321,#259,#260);
#223=AXIS2_PLACEMENT_3D('',#323,#261,#262);
#224=AXIS2_PLACEMENT_3D('',#324,#263,#264);
#225=AXIS2_PLACEMENT_3D('',#326,#265,#266);
#226=AXIS2_PLACEMENT_3D('',#327,#267,#268);
#227=AXIS2_PLACEMENT_3D('',#329,#269,#270);
#228=AXIS2_PLACEMENT_3D('',#330,#271,#272);
#229=AXIS2_PLACEMENT_3D('',#332,#273,#274);
#230=AXIS2_PLACEMENT_3D('',#333,#275,#276);
#231=AXIS2_PLACEMENT_3D('',#335,#277,#278);
#232=AXIS2_PLACEMENT_3D('',#336,#279,#280);
#233=AXIS2_PLACEMENT_3D('',#338,#281,#282);
#234=AXIS2_PLACEMENT_3D('',#339,#283,#284);
#235=AXIS2_PLACEMENT_3D('',#341,#285,#286);
#236=AXIS2_PLACEMENT_3D('',#343,#287,#288);
#237=AXIS2_PLACEMENT_3D('',#344,#289,#290);
#238=AXIS2_PLACEMENT_3D('',#345,#291,#292);
#239=AXIS2_PLACEMENT_3D('',#346,#293,#294);
#240=AXIS2_PLACEMENT_3D('',#348,#295,#296);
#241=AXIS2_PLACEMENT_3D('',#349,#297,#298);
#242=AXIS2_PLACEMENT_3D('',#351,#299,#300);
#243=AXIS2_PLACEMENT_3D('',#352,#301,#302);
#244=AXIS2_PLACEMENT_3D('',#353,#303,#304);
#245=AXIS2_PLACEMENT_3D('',#355,#305,#306);
#246=AXIS2_PLACEMENT_3D('',#356,#307,#308);
#247=AXIS2_PLACEMENT_3D('',#358,#309,#310);
#248=AXIS2_PLACEMENT_3D('',#359,#311,#312);
#249=DIRECTION('axis',(0.,0.,1.));
#250=DIRECTION('refdir',(1.,0.,0.));
#251=DIRECTION('center_axis',(0.,1.,0.));
#252=DIRECTION('ref_axis',(0.,0.,1.));
#253=DIRECTION('center_axis',(0.,-1.,0.));
#254=DIRECTION('ref_axis',(0.,0.,1.));
#255=DIRECTION('center_axis',(0.,1.,0.));
#256=DIRECTION('ref_axis',(0.,0.,1.));
#257=DIRECTION('center_axis',(0.,-1.,0.));
#258=DIRECTION('ref_axis',(0.,0.,-1.));
#259=DIRECTION('center_axis',(0.,-1.,0.));
#260=DIRECTION('ref_axis',(-1.,0.,0.));
#261=DIRECTION('center_axis',(0.,1.,0.));
#262=DIRECTION('ref_axis',(-1.,0.,6.12323399573676E-17));
#263=DIRECTION('center_axis',(0.,1.,0.));
#264=DIRECTION('ref_axis',(0.,0.,1.));
#265=DIRECTION('center_axis',(0.,1.,0.));
#266=DIRECTION('ref_axis',(1.,0.,0.));
#267=DIRECTION('center_axis',(0.,1.,0.));
#268=DIRECTION('ref_axis',(-1.,0.,0.));
#269=DIRECTION('center_axis',(0.,1.,0.));
#270=DIRECTION('ref_axis',(1.,0.,0.));
#271=DIRECTION('center_axis',(0.,1.,0.));
#272=DIRECTION('ref_axis',(0.,0.,1.));
#273=DIRECTION('center_axis',(0.,1.,0.));
#274=DIRECTION('ref_axis',(1.,0.,0.));
#275=DIRECTION('center_axis',(0.,-1.,0.));
#276=DIRECTION('ref_axis',(0.,0.,-1.));
#277=DIRECTION('center_axis',(0.,-1.,0.));
#278=DIRECTION('ref_axis',(-1.,0.,0.));
#279=DIRECTION('center_axis',(0.,1.,0.));
#280=DIRECTION('ref_axis',(0.,0.,1.));
#281=DIRECTION('center_axis',(0.,1.,0.));
#282=DIRECTION('ref_axis',(-1.,0.,0.));
#283=DIRECTION('center_axis',(0.,1.,0.));
#284=DIRECTION('ref_axis',(0.,0.,1.));
#285=DIRECTION('center_axis',(0.,1.,0.));
#286=DIRECTION('ref_axis',(1.,0.,0.));
#287=DIRECTION('center_axis',(0.,-1.,0.));
#288=DIRECTION('ref_axis',(1.,0.,0.));
#289=DIRECTION('center_axis',(0.,1.,0.));
#290=DIRECTION('ref_axis',(-1.,0.,0.));
#291=DIRECTION('center_axis',(0.,-1.,0.));
#292=DIRECTION('ref_axis',(0.,0.,-1.));
#293=DIRECTION('center_axis',(0.,1.,0.));
#294=DIRECTION('ref_axis',(1.,0.,0.));
#295=DIRECTION('center_axis',(0.,1.,0.));
#296=DIRECTION('ref_axis',(1.,0.,0.));
#297=DIRECTION('center_axis',(0.,1.,0.));
#298=DIRECTION('ref_axis',(1.,0.,0.));
#299=DIRECTION('center_axis',(0.,1.,0.));
#300=DIRECTION('ref_axis',(1.,0.,0.));
#301=DIRECTION('center_axis',(0.,1.,0.));
#302=DIRECTION('ref_axis',(1.,0.,0.));
#303=DIRECTION('center_axis',(0.,-1.,0.));
#304=DIRECTION('ref_axis',(-1.,0.,0.));
#305=DIRECTION('center_axis',(0.,1.,0.));
#306=DIRECTION('ref_axis',(1.,0.,0.));
#307=DIRECTION('center_axis',(0.,1.,0.));
#308=DIRECTION('ref_axis',(-1.,0.,0.));
#309=DIRECTION('center_axis',(0.,1.,0.));
#310=DIRECTION('ref_axis',(1.,0.,0.));
#311=DIRECTION('center_axis',(0.,1.,0.));
#312=DIRECTION('ref_axis',(-1.,0.,0.));
#313=CARTESIAN_POINT('',(0.,0.,0.));
#314=CARTESIAN_POINT('Origin',(0.,5.7,0.));
#315=CARTESIAN_POINT('',(2.23191879144606E-15,3.70015625610399,-18.2250000000001));
#316=CARTESIAN_POINT('Origin',(0.,3.70015625610399,0.));
#317=CARTESIAN_POINT('',(-2.01293290365733E-15,6.64407773711239,-16.4368445257752));
#318=CARTESIAN_POINT('Origin',(0.,6.64407773711239,0.));
#319=CARTESIAN_POINT('Origin',(0.,20.5,0.));
#320=CARTESIAN_POINT('',(21.282660922978,21.5,2.60637425766635E-15));
#321=CARTESIAN_POINT('Origin',(0.,21.5,0.));
#322=CARTESIAN_POINT('',(22.2223535437639,20.1579798566743,-5.44290682737827E-15));
#323=CARTESIAN_POINT('Origin',(0.,20.1579798566743,-1.36072670684457E-15));
#324=CARTESIAN_POINT('Origin',(-1.43937264275587E-15,21.5,0.));
#325=CARTESIAN_POINT('',(-5.,21.5,6.12323399573677E-16));
#326=CARTESIAN_POINT('Origin',(0.,21.5,0.));
#327=CARTESIAN_POINT('Origin',(0.,19.3,0.));
#328=CARTESIAN_POINT('',(-21.000148828669,16.8,0.));
#329=CARTESIAN_POINT('Origin',(0.,16.8,0.));
#330=CARTESIAN_POINT('Origin',(0.,5.7,0.));
#331=CARTESIAN_POINT('',(-18.25,3.7,2.23498040844392E-15));
#332=CARTESIAN_POINT('Origin',(0.,3.7,0.));
#333=CARTESIAN_POINT('Origin',(-20.25,3.7,0.));
#334=CARTESIAN_POINT('',(-20.25,3.7,0.));
#335=CARTESIAN_POINT('Origin',(0.,3.7,0.));
#336=CARTESIAN_POINT('Origin',(0.,5.8,0.));
#337=CARTESIAN_POINT('',(17.4271243444677,7.6228756555323,-2.13420720467953E-15));
#338=CARTESIAN_POINT('Origin',(0.,7.6228756555323,0.));
#339=CARTESIAN_POINT('Origin',(0.,3.,0.));
#340=CARTESIAN_POINT('',(-17.25,-1.66533453693773E-15,2.11251572852918E-15));
#341=CARTESIAN_POINT('Origin',(0.,-1.66533453693773E-15,0.));
#342=CARTESIAN_POINT('',(-20.25,3.,-2.47990976827339E-15));
#343=CARTESIAN_POINT('Origin',(0.,3.,0.));
#344=CARTESIAN_POINT('Origin',(0.,2.4,0.));
#345=CARTESIAN_POINT('Origin',(-20.25,-1.4314542795316E-15,0.));
#346=CARTESIAN_POINT('Origin',(0.,6.54179786375629,0.));
#347=CARTESIAN_POINT('',(4.188,7.8,0.));
#348=CARTESIAN_POINT('Origin',(0.,7.8,0.));
#349=CARTESIAN_POINT('Origin',(0.,21.244,0.));
#350=CARTESIAN_POINT('',(4.188,20.688,0.));
#351=CARTESIAN_POINT('Origin',(0.,20.688,0.));
#352=CARTESIAN_POINT('Origin',(0.,14.8,0.));
#353=CARTESIAN_POINT('Origin',(0.,6.425,0.));
#354=CARTESIAN_POINT('',(-17.,8.04999999999999,0.));
#355=CARTESIAN_POINT('Origin',(0.,8.04999999999999,0.));
#356=CARTESIAN_POINT('Origin',(0.,10.7467382966048,0.));
#357=CARTESIAN_POINT('',(-17.,13.4434765932096,0.));
#358=CARTESIAN_POINT('Origin',(0.,13.4434765932096,0.));
#359=CARTESIAN_POINT('Origin',(0.,15.1217382966048,0.));
#360=UNCERTAINTY_MEASURE_WITH_UNIT(LENGTH_MEASURE(0.01),#364,
'DISTANCE_ACCURACY_VALUE',
'Maximum model space distance between geometric entities at asserted c
onnectivities');
#361=UNCERTAINTY_MEASURE_WITH_UNIT(LENGTH_MEASURE(0.01),#364,
'DISTANCE_ACCURACY_VALUE',
'Maximum model space distance between geometric entities at asserted c
onnectivities');
#362=(
GEOMETRIC_REPRESENTATION_CONTEXT(3)
GLOBAL_UNCERTAINTY_ASSIGNED_CONTEXT((#360))
GLOBAL_UNIT_ASSIGNED_CONTEXT((#364,#367,#366))
REPRESENTATION_CONTEXT('','3D')
);
#363=(
GEOMETRIC_REPRESENTATION_CONTEXT(3)
GLOBAL_UNCERTAINTY_ASSIGNED_CONTEXT((#361))
GLOBAL_UNIT_ASSIGNED_CONTEXT((#364,#367,#366))
REPRESENTATION_CONTEXT('','3D')
);
#364=(
LENGTH_UNIT()
NAMED_UNIT(*)
SI_UNIT(.MILLI.,.METRE.)
);
#365=(
LENGTH_UNIT()
NAMED_UNIT(*)
SI_UNIT(.CENTI.,.METRE.)
);
#366=(
NAMED_UNIT(*)
SI_UNIT($,.STERADIAN.)
SOLID_ANGLE_UNIT()
);
#367=(
NAMED_UNIT(*)
PLANE_ANGLE_UNIT()
SI_UNIT($,.RADIAN.)
);
#368=SHAPE_DEFINITION_REPRESENTATION(#369,#370);
#369=PRODUCT_DEFINITION_SHAPE('',$,#372);
#370=SHAPE_REPRESENTATION('',(#217),#362);
#371=PRODUCT_DEFINITION_CONTEXT('part definition',#376,'design');
#372=PRODUCT_DEFINITION('Sou\X2\010D00E1\X0\st11','Sou\X2\010D00E1\X0\s
t11',#373,#371);
#373=PRODUCT_DEFINITION_FORMATION('',$,#378);
#374=PRODUCT_RELATED_PRODUCT_CATEGORY('Sou\X2\010D00E1\X0\st11',
'Sou\X2\010D00E1\X0\st11',(#378));
#375=APPLICATION_PROTOCOL_DEFINITION('international standard',
'automotive_design',2009,#376);
#376=APPLICATION_CONTEXT(
'Core Data for Automotive Mechanical Design Process');
#377=PRODUCT_CONTEXT('part definition',#376,'mechanical');
#378=PRODUCT('Sou\X2\010D00E1\X0\st11','Sou\X2\010D00E1\X0\st11',$,(#377));
#379=PRESENTATION_STYLE_ASSIGNMENT((#382));
#380=PRESENTATION_STYLE_ASSIGNMENT((#383));
#381=PRESENTATION_STYLE_ASSIGNMENT((#384));
#382=SURFACE_STYLE_USAGE(.BOTH.,#385);
#383=SURFACE_STYLE_USAGE(.BOTH.,#386);
#384=SURFACE_STYLE_USAGE(.BOTH.,#387);
#385=SURFACE_SIDE_STYLE('',(#388));
#386=SURFACE_SIDE_STYLE('',(#389));
#387=SURFACE_SIDE_STYLE('',(#390));
#388=SURFACE_STYLE_FILL_AREA(#391);
#389=SURFACE_STYLE_FILL_AREA(#392);
#390=SURFACE_STYLE_FILL_AREA(#393);
#391=FILL_AREA_STYLE('',(#394));
#392=FILL_AREA_STYLE('',(#395));
#393=FILL_AREA_STYLE('',(#396));
#394=FILL_AREA_STYLE_COLOUR('',#397);
#395=FILL_AREA_STYLE_COLOUR('',#398);
#396=FILL_AREA_STYLE_COLOUR('',#399);
#397=COLOUR_RGB('',0.749019607843137,0.749019607843137,0.749019607843137);
#398=COLOUR_RGB('',0.250980392156863,0.250980392156863,0.250980392156863);
#399=COLOUR_RGB('',1.,1.,1.);
ENDSEC;
END-ISO-10303-21;
